Guitar Tabs, Chords and Lyrics


Ruin    Lamb Of God



Ruin - Lamb Of God
As The Palaces Burn

Drop D:
D A D G B E

*12/8 time*

Intro:

Fig. 1

e-------------------------------------------------
b-------------------------------------------------
g-------------------------------------------------
d-0-0-0-5---6-0-0-0-5---6-0-0-0-5---6-0-0-0-5---6- (x4)
a-0-0-0-5---6-0-0-0-5---6-0-0-0-5---6-0-0-0-5---6-
d-0-0-0-5-0-6-0-0-0-5-0-6-0-0-0-5-0-6-0-0-0-5-0-6-
  * * *   *   * * *   *   * * *   *   * * *   *

Riff A:
e----------------------------------------------------
b----------------------------------------------------
g----------------------------------------------------
d---------------------------------------------------- (x2)
a----------------------------------------------------
d-2-22-2-5-2-6-2-22-2-5-2-6-2-22-2-5-2-6-2-5-2-3-2-5-
  * ** *   * * * ** *   *   * ** *   *   *   *   *

Riff B w/ Riff A (x2)

e----------------------------------------------------
b----------------------------------------------------
g----------------------------------------------------
d---------------------------------------------------- (x2)
a--------2---3--------2---3--------2---3---2---0---2-
d-2-22-2---2---2-22-2---2---2-22-2---2---2---2---2---

Fig. 1 (x4)

1st Verse: (0:44)

Fig. 2

e------------------------------------------------------
b------------------------------------------------------
g------------------------------------------------------
d------------------------------------------------------
a------------------------------------------8-7---6-5---
d-0-0-0-12-0-13-0-0-0-00-0-0-0-0-0-12-0-13-----9-----8-

e----------------------------------------------------
b----------------------------------------------------
g----------------------------------------------------
d----------------------------------------------------
a----------------------------------6-----5-----------
d-0-0-0-12-0-13-0-0-0-00-0-0-0-6-7---7-6---6-5-0-3-6-

e------------------------------------------------------
b------------------------------------------------------
g------------------------------------------------------
d------------------------------------------------------
a------------------------------------------8-7---6-5---
d-0-0-0-12-0-13-0-0-0-00-0-0-0-0-0-12-0-13-----9-----8-

e----------------------------------------------------
b----------------------------------------------------
g----------------------------------------------------
d----------------------------------------------------
a----------------------------0h3-3-3/6-6-6\5-5-3/5-5-
d-0-0-0-12-0-13-0-0-0-00-0-0-0h3-3-3/6-6-6\5-5-3/5-5-

Chorus: (0:58) Fig. 2 w/

e----------------------------------------------------
b----------------------------------------------------
g----------------------------------------------------
d-------7---8--------------------7---8-10-9----9-8---
a-------------------------------------------10-----9-
d-0-0-0---0---0-0-0-00-0-0-0-0-0---0-----------------

e--------------------------------------------------
b--------------------------------------------------
g--------------------------------------------------
d-------7---8--------------------------------------
a--------------------------------6-----5-----------
d-0-0-0---0---0-0-0-00-0-0-0-6-7---7-6---6-5-0-3-6-

e----------------------------------------------------
b----------------------------------------------------
g----------------------------------------------------
d-------7---8--------------------7---8-10-9----9-8---
a-------------------------------------------10-----9-
d-0-0-0---0---0-0-0-00-0-0-0-0-0---0-----------------

e--------------------------------------------------
b--------------------------------------------------
g--------------------------------------------------
d-------7---8--------------------------------------
a--------------------------0h3-3-3/6-6-6\5-5-3/5-5-
d-0-0-0---0---0-0-0-00-0-0-0h3-3-3/6-6-6\5-5-3/5-5-

(1:13)

Fig. 3 (x2)

e-------------------------------------------------
b-------------------------------------------------
g-------------------------------------------------
d-------------------------------------------------
a---------5-5---------6-6---------5-5-6-6-6-3-3-3-
d-0-0-0-0-----0-0-0-0-------0-0-0-----------------

Fig. 3a (x2)

e-------------------------------------------------
b-------------------------------------------------
g-------------------------------------------------
d---------7-7---------8-8---------7-7-8-8-8-5-5-5-
a-------------------------------------------------
d-0-0-0-0-----0-0-0-0-------0-0-0-----------------

Fig. 3 (cont.)

e-------------------------------------------------
b-------------------------------------------------
g-------------------------------------------------
d-------------------------------------------8\7-7-
a---------5-5---------6-6---------5-5-6-6-6-------
d-0-0-0-0-----0-0-0-0-------0-0-0-----------------

Fig. 3a (cont.)

e-------------------------------------------------
b-------------------------------------------------
g-------------------------------------------------
d---------7-7---------8-8---------7-7-8-8-8-------
a-------------------------------------------8\7-7-
d-0-0-0-0-----0-0-0-0-------0-0-0-----------------

2nd Verse: w/ Fig. 3 & 3a (x2)
(1:27)
(x2)
e-------------------------------------------------
b-------------------------------------------------
g-------------------------------------------------
d---------3-3---------5-5---------3-3-5-5-5-------
a-------------------------------------------6-6-6-
d-0-0-0-0-----0-0-0-0-------0-0-0-----------------

e-------------------------------------------------
b-------------------------------------------------
g-------------------------------------------3\2-2-
d---------3-3---------5-5---------3-3-5-5-5-------
a-------------------------------------------------
d-0-0-0-0-----0-0-0-0-------0-0-0-----------------

Bridge: (1:42) (x2)

gtr. 1
e-------------------------------------------------
b-------------------------------------------------
g-------------------------------------------------
d-------------------------------------------------
a-0-----------1-----------------------------------
d-0-----0-0-0-1p0-0-0-0-0-4p0-3p0-0-0-0-3-5-0-3-6-

gtr. 2
e-------------------------------------------------
b-------------------------------------------------
g-9-----------------------------------------------
d-7-----------------------------------------------
a-5-----------------------------------------------
d-0-----------------------------------------------

gtr. 1
e-------------------------------------------------
b-------------------------------------------------
g-------------------------------------------------
d-------------------------------------------------
a-0-----------1-----------------------------------
d-0-----0-0-0-1p0-0-0-0-0-4p0-3p0-0-0-0-3-5-8-6-6-

gtr. 2
e-------------------------------------------------
b-------------------------------------------------
g10-----------------------------------------------
d-8-----------------------------------------------
a-6-----------------------------------------------
d-------------------------------------------------

Fig. 2

Solo: w/ Riff A (x4)

e-12~~~~b~~~----------------------------------------------
b---------------------------7h8p7----------10b~~~r-7b~~~r-
g------------7rb----------8-------9-8----8----------------
d---------------------7-9-------------10------------------
a----------------7910-------------------------------------
d---------------------------------------------------------

e----------------------1915--151915201519151715-1714--141714-
b-12b~~~-10b-\7---7b~~-----17-----------------------17-------
g------------------------------------------------------------
d------------------------------------------------------------
a------------------------------------------------------------
d------------------------------------------------------------

e-1914171415141714--1417141914171415141514--14-------------
b-----------------15----------------------17--171513151312-
g----------------------------------------------------------
d----------------------------------------------------------
a----------------------------------------------------------
d----------------------------------------------------------

that’s all for right now

trevor jones


Important: The song above is NOT stored on the Chordie server. The original song is hosted at www.xguitar.com. Chordie works as a search engine and provides on-the-fly formatting. Chordie does not index songs against artists'/composers' will. To remove this song please click here.

This song is displayed as text-only. Transposing and tuning is only available for chordpro-songs.

Login - add to songbook

Rating click stars to rate

Layout
Accuracy

SHARE PAGE  




You need to log in to post comments