Guitar Tabs, Chords and Lyrics


Laid to Rest    Lamb Of God



Arist: Lamb Of God
Album: Ashes Of The Wake
Track: Laid To Rest
Copyright Prosthetic Records 2004
Tuning: Drop D
Transcribed/Tabbed by Brian Brewer (teh_0wnz@ yahoo.com)

	* Pinch Harmonic
	~ Vibrato
	h Hammer On
	p Pull Off
	. Palm Mute
	/ Slide Up
	\\ Slide Down
	b Bend
	r Release


	Guitar 1 & 2 (Opening)
e|---------------------------|
B|---------------------------|
G|---------------------------|
D|--------------------0--12/-|
A|--------------------0--12/-|
D|--------------------0--12/-|
                      .


	Guitar 1 (0:01-0:07)
e|-------------------------------------------------------|
B|-------------------------------------------------------|
G|-------------------------------------------------------|
D|-------------------------------------------------------|
A|--------6-5-3---------8-5-6----------------------------|
D|-0-0-0---------0-0-0---------0-0-0--8-5-4-7-8-7-10-7-8-|
   . . .         . . .         . . .

e|-------------------------------------------------------|
B|-------------------------------------------------------|
G|-------------------------------------------------------|
D|-------4h5p4----------8-7-5--4h5p4---4-----------------|
A|-------------6---------------------6---5-6-3-5---3-----|
D|-0-0-0----------0-0-0--------------------------6---5-6-|
   . . .          . . .


	Guitar 2 (0:01-0:07)
e|-------------------------------------------------------|
B|-------------------------------------------------------|
G|-------------------------------------------------------|
D|-0-----------------------------------------------------|
A|-0-----------------------------------------------------|
D|-0-----------------------------------------------------|
   .

e|-------------------------------------------------------|
B|-------------------------------------------------------|
G|-------------------------------------------------------|
D|-0-----------------------------------------------------|
A|-0-----------------------------------------------------|
D|-0-----------------------------------------------------|


	Guitar 1 & 2 (0:07-0:21)
e|-------------------------------------------------------|
B|-------------------------------------------------------|
G|-------------------------------------------------------| 3x
D|-------------------------------------------------------|
A|-2-2-2-2------2-2-2-2--------2-2--2--------------------|
D|-2-2-2-2-3b*--2-2-2-2-3b*----2-2--2-2-3-2-5-4-3--------|
   . . . .      . . . .        . .  .

e|-------------------------------------------------------|
B|-------------------------------------------------------|
G|-------------------------------------------------------|
D|-------------------------------------------------------|
A|-2-2-2-2------2-2-2-2--------2-2--2--------------------|
D|-2-2-2-2-3b*--2-2-2-2-3b*----2-2--2-2-3-2-3-2-1--------|
   . . . .      . . . .        . .  .


	Guitar 1 (0:21-0:35)
e|-------------------------------------------------------|
B|-------------------------------------------------------|
G|-------------------------------------------------------| 4x
D|-------------------------------------------------------|
A|-0-0-0-0-0---0-0-0-0-0---0-0--0--0-0-0-0---------------|
D|-0-0-0-0-0---0-0-0-0-0---0-0--0--0-0-0-0---------------|
   . . . . .   . . . . .   . .  .  . . . .


	Guitar 2 (0:21-0:35)
e|--------------------------------------|
B|-------------------13-----------------| 8x
G|-15p14----12h14-------15----15p14-----|
D|-------12-------12-------12-------12--|
A|--------------------------------------|
D|--------------------------------------|
         .        .        .        .


	Guitar 1 & 2 (0:35-0:42)
e|-------------------------------------------------------|
B|-------------------------------------------------------|
G|-------------------------------------------------------|
D|-------------------------------------------------------|

A|-2-2-2-2------2-2-2-2--------2-2--2--------------------|
D|-2-2-2-2-3b*--2-2-2-2-3b*----2-2--2-2-3-2-5-4-3--------|
   . . . .      . . . .        . .  .

e|-------------------------------------------------------|
B|-------------------------------------------------------|
G|-------------------------------------------------------|
D|-------------------------------------------------------|
A|-2-2-2-2------2-2-2-2--------2-2--2--------------------|
D|-2-2-2-2-3b*--2-2-2-2-3b*----2-2--2-2-3-2-3-2-1--------|
   . . . .      . . . .        . .  .


	Guitar 1 & 2 (0:42-0:56)
e|-------------------------------------------------------|
B|-------------------------------------------------------|
G|-------------------------------------------------------|
D|-------------------------------------------------------|
A|--------6-5-3---------8-5-6----------------------------|
D|-0-0-0---------0-0-0---------0-0-0--8-5-4-7-8-7-10-7-8-|
   . . .         . . .         . . .                       2x

e|-------------------------------------------------------|
B|-------------------------------------------------------|
G|-------------------------------------------------------|
D|-------4h5p4----------8-7-5--4h5p4---4-----------------|
A|-------------6---------------------6---5-6-3-5---3-----|
D|-0-0-0----------0-0-0--------------------------6---5-6-|
   . . .          . . .


	Guitar 1 (0:56-1:09)
e|-------------------------------------------------------|
B|-------------------------------------------------------|
G|-------------------------------------------------------|
D|------------------------5----4-------------------------|
A|-/5----------------3-----------------------3----1----0-|
D|-------------------------------------------------------|

e|-------------------------------------------------------|
B|-------------------------------------------------------|
G|-------------------------------------------------------|
D|-------------------------------------------------------|
A|-------------------------------------------------------|
D|-5----5/8----7-----------------------------3----1------|


	Guitar 2 (0:56-1:09)
e|-------------------------------------------------------|
B|-------------------------------------------------------|
G|-------------------------------------------------------|
D|-------------------------------------------------------|
A|--------6-5-3---------8-5-6----------------------------|
D|-0-0-0---------0-0-0---------0-0-0--8-5-4-7-8-7-10-7-8-|
   . . .         . . .         . . .                       2x

e|-------------------------------------------------------|
B|-------------------------------------------------------|
G|-------------------------------------------------------|
D|-------4h5p4----------8-7-5--4h5p4---4-----------------|
A|-------------6---------------------6---5-6-3-5---3-----|
D|-0-0-0----------0-0-0--------------------------6---5-6-|
   . . .          . . .


	Guitar 1 & 2 (1:10-1:23)
e|-------------------------------------------------------|
B|-------------------------------------------------------|
G|-------------------------------------------------------| 2x
D|-------------------------------------------------------|
A|-0---6-3-5-0---1-3-1-0---6-3-5-------------------------|
D|-0---6-3-5-0---1-3-1-0---6-3-5--------0-1-3-4b*-3------|
                                        . . .

e|-------------------------------------------------------|
B|-------------------------------------------------------|
G|-------------------------------------------------------| 2x
D|-------------------------------------------------------|
A|-000-6-3-5-000-1-3-1-000-6-3-5-------------------------|
D|-000-6-3-5-000-1-3-1-000-6-3-5--------0-1-3-4b*-3------|
   ...       ...       ...              . . .


	Guitar 1 & 2 (1:24-1:30)
e|-------------------------------------------------------|
B|-------------------------------------------------------|
G|-------------------------------------------------------|
D|-------------------------------------------------------|
A|-2-2-2-2------2-2-2-2--------2-2--2--------------------|
D|-2-2-2-2-3b*--2-2-2-2-3b*----2-2--2-2-3-2-5-4-3--------|
   . . . .      . . . .        . .  .

e|-------------------------------------------------------|
B|-------------------------------------------------------|
G|-------------------------------------------------------|
D|-------------------------------------------------------|
A|-2-2-2-2------2-2-2-2--------2-2--2--------------------|
D|-2-2-2-2-3b*--2-2-2-2-3b*----2-2--2-2-3-2-3-2-1--------|
   . . . .      . . . .        . .  .


	Guitar 1 & 2 (1:30-1:44)
e|-------------------------------------------------------|
B|-------------------------------------------------------|
G|-------------------------------------------------------|
D|-------------------------------------------------------|
A|--------6-5-3---------8-5-6----------------------------|
D|-0-0-0---------0-0-0---------0-0-0--8-5-4-7-8-7-10-7-8-|
   . . .         . . .         . . .                       2x

e|-------------------------------------------------------|
B|-------------------------------------------------------|
G|-------------------------------------------------------|
D|-------4h5p4----------8-7-5--4h5p4---4-----------------|
A|-------------6---------------------6---5-6-3-5---3-----|
D|-0-0-0----------0-0-0--------------------------6---5-6-|
   . . .          . . .


	Guitar 1 (1:44-1:58)
e|-------------------------------------------------------|
B|-------------------------------------------------------|
G|-------------------------------------------------------|
D|------------------------5----4-------------------------|
A|-/5----------------3-----------------------3----1----0-|
D|-------------------------------------------------------|

e|-------------------------------------------------------|
B|-------------------------------------------------------|
G|-------------------------------------------------------|
D|-------------------------------------------------------|
A|-------------------------------------------------------|
D|-5----5/8----7-----------------------------3----1------|


	Guitar 2 (1:44-1:58)
e|-------------------------------------------------------|
B|-------------------------------------------------------|
G|-------------------------------------------------------|
D|-------------------------------------------------------|
A|--------6-5-3---------8-5-6----------------------------|
D|-0-0-0---------0-0-0---------0-0-0--8-5-4-7-8-7-10-7-8-|
   . . .         . . .         . . .                       2x

e|-------------------------------------------------------|
B|-------------------------------------------------------|
G|-------------------------------------------------------|
D|-------4h5p4----------8-7-5--4h5p4---4-----------------|
A|-------------6---------------------6---5-6-3-5---3-----|
D|-0-0-0----------0-0-0--------------------------6---5-6-|
   . . .          . . .


	Guitar 1 & 2 (1:58-2:12)
e|-------------------------------------------------------|
B|-------------------------------------------------------|
G|-------------------------------------------------------| 2x
D|-------------------------------------------------------|
A|-0---6-3-5-0---1-3-1-0---6-3-5-------------------------|
D|-0---6-3-5-0---1-3-1-0---6-3-5--------0-1-3-4b*-3------|
                                        . . .

e|-------------------------------------------------------|
B|-------------------------------------------------------|
G|-------------------------------------------------------| 2x
D|-------------------------------------------------------|
A|-000-6-3-5-000-1-3-1-000-6-3-5-------------------------|
D|-000-6-3-5-000-1-3-1-000-6-3-5--------0-1-3-4b*-3------|
   ...       ...       ...              . . .


	Guitar 1 & 2 (2:12-2:19)
e|-------------------------------------------------------|
B|-------------------------------------------------------|
G|-------------------------------------------------------|
D|-------------------------------------------------------|
A|-2-2-2-2-2---2-2-2-2-2---2-2--2--2-2-2-2---------------|
D|-2-2-2-2-2---2-2-2-2-2---2-2--2--2-2-2-2---------------|
   . . . . .   . . . . .   . .  .  . . . .

e|-------------------------------------------------------|
B|-------------------------------------------------------|
G|-------------------------------------------------------|
D|-------------------------------------------------------|
A|-2-2-2-2-2---2-2-2-2-2---2-2--2--2-2-------------------|
D|-2-2-2-2-2---2-2-2-2-2---2-2--2--2-2-------------------|
   . . . . .   . . . . .   . .  .  . .


	Guitar 1 & 2 (2:19-2:33)
e|-------------------------------------------------------|
B|-------------------------------------------------------|
G|-------------------------------------------------------| 4x
D|-------------------------------------------------------|
A|-0-0-0-0-0---0-0-0-0-0---0-0--0--0-0-0-0---------------|
D|-0-0-0-0-0---0-0-0-0-0---0-0--0--0-0-0-0---------------|
   . . . . .   . . . . .   . .  .  . . . .


	Guitar 1 (2:34-2:48)
e|-------------------------------------------------------|
B|-------------------------------------------------------|
G|-------------------------------------------------------| 3x
D|-------------------------------------------------------|
A|--------6-5-3---------8-5-6----------------------------|
D|-0-0-0---------0-0-0---------0-0-0--8-5-4-7-8-7-10-7-8-|
   . . .         . . .         . . .

e|-------------------------------------------------------|
B|-------------------------------------------------------|
G|-------------------------------------------------------|
D|-----------------------------4h5p4---4-----------------|
A|--------6-5-3--------8-5-6---------6---5-6-3-5---3-----|
D|-0-0-0---------0-0-0---------------------------6---5-6-|
   . . .         . . .


	Guitar 2 (2:34-2:48)
e|-------------------------------------------------------|
B|-------------------------------------------------------|
G|-------------------------------------------------------| 3x
D|-------------------------------------------------------|
A|-0-0-0-0-0---0-0-0-0-0---0-0--0--0-0-0-0---------------|
D|-0-0-0-0-0---0-0-0-0-0---0-0--0--0-0-0-0---------------|
   . . . . .   . . . . .   . .  .  . . . .

e|-------------------------------------------------------|
B|-------------------------------------------------------|
G|-------------------------------------------------------|
D|-------------------------------------------------------|
A|-0-0-0-0-0---0-0-0-0-0---0-----------------------------|
D|-0-0-0-0-0---0-0-0-0-0---0-----------------------------|
   . . . . .   . . . . .   .


	Guitar 1 & 2 (2:48-3:04)
e|-------------------------------------------------------|
B|-------------------------------------------------------|
G|-------------------------------------------------------| 2x
D|-------------------------------------------------------|
A|-0---6-3-5-0---1-3-1-0---6-3-5-------------------------|
D|-0---6-3-5-0---1-3-1-0---6-3-5--------0-1-3-4b*-3------|
                                        . . .

e|-------------------------------------------------------|
B|-------------------------------------------------------|
G|-------------------------------------------------------| 2x
D|-------------------------------------------------------|
A|-000-6-3-5-000-1-3-1-000-6-3-5-------------------------|
D|-000-6-3-5-000-1-3-1-000-6-3-5--------0-1-3-4b*-3------|
   ...       ...       ...              . . .

e|-------------------------------------------------------|
B|-------------------------------------------------------|
G|-------------------------------------------------------|
D|-------------------------------------------------------|
A|-------------------------------------------------------|
D|-0-1-3-4b*-3------0-5-7-8b-5---------------------------|
   . . .            . . .


	Guitar 1 & 2 (3:04-3:33)
e|-------------------------------------------------------|
B|-------------------------------------------------------|
G|-------------------------------------------------------|
D|-------------------------------------------------------|
A|-5-------5---5-------5---6-------6---6-------6---------|
D|---5-0-5---0---5-0-5---0---5-0-5---0---5-0-5---0-------|
     . . .   .   . . .   .   . . .   .   . . .   .         4x

e|-------------------------------------------------------|
B|-------------------------------------------------------|
G|-------------------------------------------------------|
D|-------------------------------------------------------|
A|----------------------------0-------0---0------0-------|
D|-8-7-5-7-8-5-8-7-5-7-8-5-8----5-1-5---5---5-1-5--5-----|
   . . . .   .   . . .   .      . . .   .   . . .  .


	Guitar 1 (3:33-3:50) END
e|-------------------------------------------------------|
B|-------------------------------------------------------|
G|-------------------------------------------------------| 4x
D|-------------------------------------------------------|
A|-0-0-0-0-0---0-0-0-0-0---0-0--0--0-0-0-0---------------|
D|-0-0-0-0-0---0-0-0-0-0---0-0--0--0-0-0-0---------------|
   . . . . .   . . . . .   . .  .  . . . .


	Guitar 2 (3:33-3:50) END
e|--------------------------------------|
B|-------------------13-----------------| 7x
G|-15p14----12h14-------15----15p14-----|
D|-------12-------12-------12-------12--|
A|--------------------------------------|
D|--------------------------------------|
         .        .        .        .

~FIN~ This song is BRUTAL, along with the rest of the CD.


Important: The song above is NOT stored on the Chordie server. The original song is hosted at www.xguitar.com. Chordie works as a search engine and provides on-the-fly formatting. Chordie does not index songs against artists/composers will. To remove this song please click here.

This song is displayed as text-only. Transposing and tuning is only available for chordpro-songs.

Login - add to songbook

Rating click stars to rate

Layout
Accuracy

SHARE PAGE  




You need to log in to post comments