Guitar Tabs, Chords and Lyrics


One Gun    Lamb Of God



One Gun
Ashes of the Wake
Tabbed by Tim Mena
tim_mena@yahoo.com
                                                                     Lamb of God
Guitar 1




E||--------------------------|-------------------------|------------------|
B||--------------------------|-------------------------|------------------|
G||--------------------------|-------------------------|------------------|
D||--------------------------|-------------------------|------------------|
A||--------5--------6--------|--5--------6--------5----|------------------|
D||--0--3-----0--3-----0--3--|-----0--3-----0--3-------|------------------|



------------------|--------------------------|--------------------------|
------------------|--------------------------|--------------------------|
------------------|--------------------------|--------------------------|
------------------|--------------------------|--------------------------|
------------------|--------5--------6--------|--5--------6--------5-----|
------------------|--0--3-----0--3-----0--3--|-----0--3-----0--3-----0--|



--------------------------|---------------------------|
--------------------------|---------------------------|
--------------------------|---------------------------|
--------------------------|---------------------------|
-----5--------------------|------------------6--6--6--|
--3-----6--3--5--1--0--1--|--3-4-3--1--0--1--6--6--6--|



|---------------------------|--------------------------|
|---------------------------|--------------------------|
|*--------------------------|--------------------------|
|*--------------------------|--------------------------|
|---------5--------6--------|--5--------6--------5-----|
|---0--3-----0--3-----0--3--|-----0--3-----0--3-----0--|



--------------------------|-------------------------|--------------------------|
--------------------------|-------------------------|--------------------------|
--------------------------|-------------------------|--------------------------|
--------------------------|-------------------------|--------------------------|
--------------------------|-------------------------|--------5--------6--------|
--3--5--0--3--5--6--5--3--|--3r---1--0--1--4--1--0--|--0--3-----0--3-----0--3--|



--------------------------|--------------------------|
--------------------------|--------------------------|
--------------------------|--------------------------|
--------------------------|--------------------------|
--5--------6--------5-----|-----5--------------------|
-----0--3-----0--3-----0--|--3-----6--3--5--1--0--1--|



----------------------------||---------------------------|
----------------------------||---------------------------|
---------------------------*||*--------------------------|
---------------------------*||*--------------------------|
------------------6--6--6---||---------------------------|
--3-4-3--1--0--1--6--6--6---||---0--0--0--0--0--0--0--0--|



--------------------------|--------------------------|
--------------------------|--------------------------|
--------------------------|--------------------------|
--------------------------|--------------------------|
--------------------------|--------------------------|
--0--0--3--0--1--4--1--0--|--0--0--0--0--0--0--0--0--|



--------------------------|--------------------------|
--------------------------|--------------------------|
--------------------------|--------------------------|
--------------------------|--------------------------|
--------------------------|--------------------------|
--0--0--3--0--1--4--1--0--|--0--0--0--0--0--0--0--0--|



--------------------------|--------------------------|
--------------------------|--------------------------|
--------------------------|--------------------------|
--------------------------|--------------------------|
--------------------------|--------------------------|
--0--0--3--0--1--4--1--0--|--3--3--3--3--3--3--3--3--|



----------------------------||----||
----------------------------||----||
---------------------------*||----||
---------------------------*||----||
------------------------6---||----||


Important: The song above is NOT stored on the Chordie server. The original song is hosted at www.xguitar.com. Chordie works as a search engine and provides on-the-fly formatting. Chordie does not index songs against artists'/composers' will. To remove this song please click here.

This song is displayed as text-only. Transposing and tuning is only available for chordpro-songs.

Login - add to songbook

Rating click stars to rate

Layout
Accuracy

SHARE PAGE  




You need to log in to post comments