Guitar Tabs, Chords and Lyrics


The Subtle Arts of Murder and Persuasion    Lamb Of God



Lamb Of God - The Subtle Arts of Murder And Persuasion
Submitted By: Sqweeky
EMail: Blindside831@aol.com


Tunning:Drop D



D|-15-15--------------------------------------------|
B|-------17-17-15-15---------15-15-17-17-15-15------|
G|---------------------14-14------------------------|
D|--------------------------------------------------|
A|--------------------------------------------------|
D|--------------------------------------------------|

D|-15-15--------------------------------------------|
B|-------17-17-15-15---------15-15-17-17-15-15------|
G|---------------------14-14------------------------|
D|--------------------------------------------------|
A|--------------------------------------------------|
D|--------------------------------------------------|

D|-13-13-------13-13-------------13-13-------|
B|-------15-15-------15-15-------------15-15-|
G|--------------------------16-16------------|
D|-------------------------------------------|
A|-------------------------------------------|
D|-------------------------------------------|


D|-13-13-------------13-13-------13-13-------|
B|-------15-15-------------15-15-------15-15-|
G|-------------16-16-------------------------|
D|-------------------------------------------|
A|-------------------------------------------|
D|-------------------------------------------|

Intro: Guitar 2
D|-------------------------------------------|
B|-------------------------------------------|
G|-------------------------------------------|
D|-------------------------------------------|
A|-00-00--00-00-00-00--11-11--11-44-33-1~----|
D|-00-00--00-00-00-00--11-11--11-44-33-1~----|
   ^^ ^^  ^^ ^^ ^^ ^^  ^^ ^^  ^^ ^^ ^^

Both Guitars:
D|-------------------------------------------|
B|-------------------------------------------|
G|-------------------------------------------|
D|-------------------------------------------|
A|-00-00--00-00-000--00-00-00--00-00-00------|
D|-00-00--00-00-000--00-00-00--00-00-00-0----|
   ^^ ^^  ^^ ^^ ^^^  ^^ ^^ ^^  ^^ ^^ ^^
Then Play Intro: Guitar 2 as Verse

Guitar 1
D|---------------------------------|
B|---------------------------------|
G|---------------------------------|
D|-----------------------------3---|
A|-1~-0-0-0-0-0-1~-0-1-2-3-2---1---|
D|-1~-0-0-0-0-0-1~-0-1-2-3-2-0---0-|
      ^ ^ ^ ^ ^    ^ ^ ^ ^ ^ ^   ^

Chorus: Guitar 1
D|-----------------------------------|
B|-----------------------------------|
G|-----------------------------------|
D|---3---3---3----------2---2---2----|
A|---1---1---1----------0---0---0----|
D|-0---0---0---00--1--1---1---0---11-|
   ^   ^   ^   ^^ ^   ^   ^   ^   ^^

Chorus: Guitar 2
D|---------------------------------|
B|---------------------------------|
G|--7-7-7-7(b)--7-7-7-7(b)-7-7(b)--|
D|---------------------------------|
A|---------------------------------|
D|---------------------------------|



Guitar 1
D|------------------------------|
B|------------------------------|
G|------------------------------|
D|------------------------------|
A|------------------------------|
D|-0001p0-0001p0-----00000------|
   ^^^  ^ ^^^  ^     ^^^^^


Both guitars
D|------------------------------|
B|------------------------------|
G|------------------------------|
D|------------------------------|
A|------------------------------|
D|-0001p0-0001p0-----00000------|
   ^^^  ^ ^^^  ^     ^^^^^



D|--------------------------------------------|
B|--------------------------------------------|
G|--------------------------------------------|
D|-----------------------------------8-8-8-8--|
A|-----------------------------------6-6-6-6--|
D|-0-0-0-1p0-0-0-0-1p0-0-0-0-1p0-0------------|
   ^ ^ ^     ^ ^ ^     ^ ^ ^     ^

Riff 3: Both Guitars
D|------------------------------| |-------------------------------------|
B|------------------------------| |-------------------------------------|
G|------------------------------| |-------------------------------------|
D|------------------------------| |------------------------------7-8-7--|
A|-----6p5-----5p4-----4p3------| |---------------9p8--------7p6-5-6-5--|
D|-6p5-----6p5-----5p4-----4p3--| |-5p4---4p3---------------------------|
   ^ ^    ^ ^      ^ ^     ^ ^      ^ ^   ^ ^






Guitar 1
D|-----------------------------------------|
B|-----------------------------------------|
G|-----------------------------------------|
D|-----7-8-7-------5-----------------------|
A|-----5-6-5-------3---------5---6---1h2p0-|
D|-0-0-------0-0-0---0-0-0-0-5-0-6---1h2p0-|
   ^ ^       ^ ^ ^   ^ ^ ^ ^   ^

Both Guitars
D|--------------------------------------------|
B|--------------------------------------------|
G|--------------------------------------------|
D|-1---------3---------1---------5---6--------|
A|-1-0-0-0-0-3-0-0-0-0-1-0-0-0-0-5-0-6--1h2p0-|
D|-1-0-0-0-0-3-0-0-0-0-1-0-0-0-0-5-0-6--1h2p0-|
     ^ ^ ^ ^   ^ ^ ^ ^   ^ ^ ^ ^   ^


Important: The song above is NOT stored on the Chordie server. The original song is hosted at www.xguitar.com. Chordie works as a search engine and provides on-the-fly formatting. Chordie does not index songs against artists'/composers' will. To remove this song please click here.

This song is displayed as text-only. Transposing and tuning is only available for chordpro-songs.

Login - add to songbook

Rating click stars to rate

Layout
Accuracy

SHARE PAGE  




You need to log in to post comments