Chordie logo


The Ocean   Led Zeppelin



THE OCEAN Guitar Tab
E|----------------|--------------|----------------|--------------|
B|----------------|--------------|----------------|--------------|
G|----------------|--------------|----------------|--------------|
D|7-7-5-----------|--5---7---7---|7-7-5-----------|--5---7---7---|
A|-----7----------|57--57--4--5-7|-----7----------|57--57--4--5-7|
E|------8---------|--------------|------8---------|--------------|

E|----------------|--------------|----------------|--------------|
B|----------------|--------------|----------------|--------------|
G|----------------|--------------|----------------|--------------|
D|7-7-5-----------|--5---7---7---|7-7-5-----------|--5---7---7---|
A|-----7----------|57--57--4--5-7|-----7----------|57--57--4--5-7|
E|------8---------|--------------|------8---------|--------------|

E|----------------|----------------|
B|7777--5555------|--7777----------|
G|7777--5555--6-4-|--7777----------|
D|7777--5555--7-5-|--7777----------|
A|5555--3333--7-5-|--5555----------|
E|------------5-3-|5---------------| 3X

E|----------------|--------------|----------------|--------------|
B|77777-55555-----|--5777--------|----------------|--------------|
G|77777-55555-6-4-|6-5777--------|----------------|--------------|
D|77777-55555-7-5-|7-5777--------|7-7-5-----------|--5---7---7---|
A|55555-33333-7-5-|7-3555--------|-----7----------|57--57--4--5-7|
E|------------5-3-|5-------------|------8-XXXXXXXX|--------------|

E|----------------|--------------|----------------|--------------|
B|----------------|--------------|----------------|--------------|
G|----------------|--------------|----------------|--------------|
D|7-7-5-----------|--5---7---7---|7-7-5-----------|--5---7---7---|
A|-----7----------|57--57--4--5-7|-----7----------|57--57--4--5-7|
E|------8-XXXXXXXX|--------------|------8-XXXXXXXX|--------------|
                                  D.S.
E|----------------|--------------|----------------|----------------|
B|----------------|--------------|77777-55555-----|--5777-----13---|
G|----------------|--------------|77777-55555-6-4-|6-5777-----14---|
D|7-7-5-----------|--5---7---7---|77777-55555-7-5-|7-5777-----15---|
A|-----7----------|57--57--4--5-7|55555-33333-7-5-|7-3555----------|
E|------8-XXXXXXXX|--------------|------------5-3-|5---------------|

E|----------------|----------------|
B|77777-55555-----|--5777-----13---|
G|77777-55555-6-4-|6-5777-----14---|
D|77777-55555-7-5-|7-5777-----15---|
A|55555-33333-7-5-|7-3555----------|
E|------------5-3-|5---------------|

E|----------------|----------------|----------------|--------------|
B|77777-55555-----|--5777----------|77777-55555-----|--5777--------|
G|77777-55555-6-4-|6-5777----------|77777-55555-6-4-|6-5777--------|
D|77777-55555-7-5-|7-5777----------|77777-55555-7-5-|7-5777--------|
A|55555-33333-7-5-|7-3555----------|55555-33333-7-5-|7-3555--------|
E|------------5-3-|5---------------|------------5-3-|5-------------|

E|----------------|-----------8--|----8-----------|--1515-----5--|
B|----------------|----------8-10|10---1010-17----|17----14-56-85|
G|9-9------975----|---5----69----|------------14--|--------------|
D|------------577-|--5--77-------|----------------|--------------|
A|----------------|57------------|----------------|--------------|
E|----------------|--------------|----------------|--------------|
 |
 |
E|----------------|--------------|----------------|--------------|
B|----------------|--------------|----------------|--------------|
G|----------------|--------------|----------------|--------------|
D|7-7-5-----------|--5---7---7---|7-7-5-----------|--5---7---7---|
A|-----7----------|57--57--4--5-7|-----7----------|57--57--4--5-7|
E|------8-XX------|--------------|------8---------|--------------|
                                                                 CODA
E|----------------|--------------|-----------8----|--15--15--15--|
B|8-----85--------|------------5-|----5-----8--10-|17--17--17--17|
G|--------78575---|---5-----5--5-|----5----9------|--------------|
D|-------------577|--5-577---7---|7-----7---------|--------------|
A|----------------|57------------|----------------|--------------|
E|----------------|--------------|----------------|--------------|
 |
 |
E|----------------|--------------|----------------|--------------|
B|----------------|--------------|----------------|--------------|
G|----------------|--------------|----------------|--------------|
D|7-7-5-----------|--5---7---7---|7-7-5-----------|--5---7---7---|
A|-----7----------|57--57--4--5-7|-----7----------|57--57--4--5-7|
E|------8---------|--------------|------8---------|--------------|

E|----------------|----------------|    |----------------|
B|7777--5555------|--7777----------|    |----------------|
G|7777--5555--6-4-|--7777----------|    |----------------|
D|7777--5555--7-5-|--7777----------|    |7---------------|
A|5555--3333--7-5-|--5555----------|    |----------------|
E|------------5-3-|5---------------| 4X |----------------|

La la la..... (D.S. al Coda)

E|------14----12--10------|------------------------|
B|10----------------14--12|----10-----13---1210--12|
G|11----------------------|------11------------11--|
D|------------------------|------------------------|
A|------------------------|------------------------|
E|------------------------|------------------------|

E|10----------------------|-----------------10-----|
B|--------10--------------|------------------------|
G|----------11----13------|----119-----8-----------|
D|------------------------|------------------------|
A|------------------------|------------------------|
E|------------------------|------------------------|

E|14----12--10------------|----101112--------------|
B|------------14--1210--10|14--------13131210--12--|
G|--------------------11--|------------------11--11|
D|------------------------|------------------------|
A|------------------------|------------------------|
E|------------------------|------------------------|

E|------------------------|------------------------|
B|101210------------------|------------------------|
G|----------12--11--11--9-|------12--11--9---------|
D|----------------11--11--|----11------------------|
A|------------------------|------------------------|
E|------------------------|------------------------|

E|----------------|----------------|----------------|----------------|
B|----------------|----------------|----------------|----------------|
G|6-4-------------|----------------|6-4-------------|----------------|
D|------7-6---4-2-|----------------|------7-6---4-2-|----------------|
A|----------------|--4-2-----------|----------------|4-2-------------|
E|----------------|----------------|----------------|----------------|

E|10----14----------------|------1410-12---------10|
B|------------------------|------------------------|
G|------------------------|------------------------|
D|------------------------|------------------------|
A|------------------------|------------------------|
E|------------------------|------------------------|

E|------------------------|------------------------|
B|14----121012------10--12|--10--------------------|
G|--------------------11--|------119--119----------|
D|------------------------|---------11-------------|
A|------------------------|------------------------|
E|------------------------|------------------------|

E|------14----1210--------|----------16--1412------|
B|10--------------------10|------1214--------12----|
G|------------------------|------------------------|
D|------------------------|------------------------|
A|------------------------|------------------------|
E|------------------------|------------------------|

E|17----16----------------|1716--1716--1716--1716--|
B|------------17----17----|----17----17----17----17|
G|------------------------|------------------------|
D|------------------------|------------------------|
A|------------------------|------------------------|
E|------------------------|------------------------|

E|----------------|----------------|----------------|----------------|
B|----------------|----------------|----------------|----------------|
G|6-4-------------|----------------|6-4-------------|----------------|
D|------7-6---4-2-|----------------|------7-6---4-2-|----------------|
A|----------------|--4-2-----------|----------------|4-2-------------|
E|----------------|----------------|----------------|----------------|

E|------------101210------|------------------------|
B|--------1012------1210--|------------121412------|
G|----11----------------11|13------1214------1412--|
D|12----------------------|----14----------------13|
A|------------------------|------------------------|
E|------------------------|------------------------|

E|------------101210------|------------121412------|
B|--------1012------1210--|--------1214------1412--|
G|11--------------------11|13--------------------13|
D|----12------------------|----14------------------|
A|------------------------|------------------------|
E|------------------------|------------------------|

E|------------101210------|------------121412------|
B|--------1012------1210--|--------1214------1412--|
G|11--------------------11|13--------------------13|
D|----12------------------|----14------------------|
A|------------------------|------------------------|
E|------------------------|------------------------|

E|----10----10----10----10|----12----12----12----12|
B|--10----10----10----10--|--12----12----12----12--|
G|14----14----14----14----|16----16----16----16----|
D|------------------------|------------------------|
A|------------------------|------------------------|
E|------------------------|------------------------|

E|----------------|----------------|----------------|----------------|
B|----------------|----------------|--------3---3-0-|--0-0-----------|
G|6-4-------------|----------------|2-2---2-2---2-1-|--1-1-----------|
D|------7-6---4-2-|----------------|2-2---2-0---0-2-|--2-2-----------|
A|----------------|--4-2-----------|0-0---0---------|----------------|
E|----------------|----------------|----------------|----------------|



Important: The song above is NOT stored on the Chordie server. The original song is hosted at www.xguitar.com. Chordie works as a search engine and provides on-the-fly formatting. Chordie does not index songs against artists/composers will. To remove this song please click here.

This song is displayed as text-only. Transposing and tuning is only available for chordpro-songs.

Login - add to songbook

Rating click stars to rate

Layout
Accuracy

SHARE PAGE  




You need to log in to post comments