Guitar Tabs, Chords and Lyrics


Good Times Bad Times   Led Zeppelin



GOOD TIMES BAD TIMES Guitar Tab

E|----------------|----------------|----------------|----------------|
B|9-9-------------|9-9-------------|9-9-------------|9-9-------------|
G|9-9-------------|9-9-------------|9-9-------------|9-9-------------|
D|9-9-------------|9-9-------------|9-9-------------|9-9-------------|
A|7-7-------------|7-7-------------|7-7-------------|7-7-------------|
E|----------------|----------------|----------------|----------------|
 |
 |
E|----------------|----------------|----------------|----------------|
B|----------------|----------------|----------------|----------------|
G|9-9-------------|9-9-------------|9-9-------------|9-9-------------|
D|9-9-------------|9-9-------------|9-9-------------|9-9-------------|
A|7-7-------------|7-7-------------|7-7-------------|7-7-------------|
E|0-0-------------|0-0-------------|0-0-------------|0-0-------------|

                    Verse 1
E|----------------||----------------|----------------|
B|9-9-------------||9-9-------------|--7-7-----------|
G|9-9-------------||9-9-------------|--7-7-----------|
D|9-9-------------||9-9-------------|-7-7-7-47-------|
A|7-7-------------||7-7-------------|5-----5--4--5-6-|
E|----------------||----------------|----------------|
 |
 |
E|----------------||----------------|----------------|
B|----------------||----------------|----------------|
G|9-9-------------||9-9-------------|--7-7-----------|
D|9-9-------------||9-9-------------|-7-7-7-47-------|
A|7-7-------------||7-7-------------|5-----5--4--5-6-|
E|0-0-------------||0-0-------------|----------------|

E|----------------|----------------|----------------|----------------|
B|9-9-------------|--7-7-----------|9-9-------------|----------------|
G|9-9-------------|--7-7-----------|9-9-------------|--7-7-----------|
D|9-9-------------|-7-7-7-47-------|9-9-------------|-7-7-7-47-------|
A|7-7-------------|5-----5--4--5-6-|7-7-------------|5-----5--4--5-6-|
E|----------------|----------------|----------------|----------------|
 |
 |
E|----------------|----------------|----------------|----------------|
B|----------------|----------------|----------------|----------------|
G|9-9-------------|--7-7-----------|9-9-------------|--7-7-----------|
D|9-9-------------|-7-7-7-47-------|9-9-------------|-7-7-7-47-------|
A|7-7-------------|5-----5--4--5-6-|7-7-------------|5-----5--4--5-6-|
E|0-0-------------|----------------|0-0-------------|----------------|

E|----------------|----------------|----------------|----------------|
B|9-9-------------|--7-7-----------|9-9-------------|----------------|
G|9-9-------------|--7-7-----------|9-9-------------|--7-7-----------|
D|9-9-------------|-7-7-7-47-------|9-9-------------|-7-7-7-47-------|
A|7-7-------------|5-----5--4--5-6-|7-7-------------|5-----5--4--5-6-|
E|----------------|----------------|----------------|----------------|
 |
 |
E|----------------|----------------|----------------|----------------|
B|----------------|----------------|----------------|----------------|
G|9-9-------------|--7-7-----------|9-9-------------|--7-7-----------|
D|9-9-------------|-7-7-7-47-------|9-9-------------|-7-7-7-47-------|
A|7-7-------------|5-----5--4--5-6-|7-7-------------|5-----5--4--5-6-|
E|0-0-------------|----------------|0-0-------------|----------------|

                                    Chorus
E|----------------|----------------||----------------|----------------|
B|----------------|----------------||----------------|----------------|
G|----------------|--7-7-----------||----------------|----------------|
D|----------------|-7-7-7-47-------||--2-------------|-22-2--7-7----77|
A|7---------------|5-----5--4--5-6-||----------------|-00-0-0-----0---|
E|----------------|----------------||45--------------|0---------------|
 |
 |
E|----------------|----------------||35--5-----------|----5------10---|
B|----------------|----------------||35--5---71210100|35--5---7121277-|
G|9-9-------------|--7-7-----------||46--6---71211110|46--6---7211277-|
D|9-9-------------|-7-7-7-47-------||57--7---71212120|577-7---7121277-|
A|7-7-------------|5-----5--4--5-6-||57--7---51012120|577-7---5101055-|
E|0-0-------------|----------------||35--5---5101010-|355-5---510-----|

E|----------------|----------------|----------------||----------------|
B|----------------|----------------|----------------||----------------|
G|----------------|----------------|4---------------||----------------|
D|----------------|----------------|----------------||----------------|
A|7-9-9-9-9-9-9-9-|799-9-9-799-9-9-|2---------------||----------------|
E|5-7-7-7-7-7-7-7-|577-7-7-577-7-7-|----------------||----------------|
 |
 |      
E|----7-----------|----7-----------|----------------||----------------|
B|----7---14141212|----7-----------|----------------||----------------|
G|----8---14141313|----8-----------|----------------||----------------|
D|----9---14141414|----9---9-9-9-9-|9---------------||----------------|
A|9-9-9---12121414|9-9-9---9-9-9-9-|9---------------||----------------|
E|7-7-----12121212|7-7-----7-7-7-7-|7---------------||----------------|

E|----------------|----------------|----------------|----------------|
B|----------------|----------------|----------------|----------------|
G|-------11911424-|-------119114242|-------11911424-|-------119114242|
D|-------11911424-|-------119114242|-------11911424-|-------119114242|
A|4-4-------------|4-4-------------|4-4-------------|4-4-------------|
E|2-2-------------|2-2-------------|----------------|----------------|
 |
 |
E|----------------|----------------|----------------|----------------|
B|----------------|----------------|----------------|----------------|
G|-------11911424-|-------119114242|-------11911424-|-------119114242|
D|-------11911424-|-------119114242|-------11911424-|-------119114242|
A|4-4-------------|4-4-------------|4-4-------------|4-4-------------|
E|2-2-------------|2-2-------------|----------------|----------------|

E|----------------|----------------|----------------|----------------|
B|----------------|----------------|----------------|----------------|
G|-------11911424-|-------119114242|-------11911424-|-------119114242|
D|-------11911424-|-------119114242|-------11911424-|-------119114242|
A|4-4-------------|4-4-------------|4-4-------------|4-4-------------|
E|2-2-------------|2-2-------------|----------------|----------------|
 |
 |
E|----------------|----------------|----------------|----------------|
B|----------------|----------------|----------------|----------------|
G|-------11911424-|-------119114242|-------11911424-|-------119114245|
D|-------11911424-|-------119114242|-------11911424-|-------119114245|
A|4-4-------------|4-4-------------|4-4-------------|4-4-------------|
E|2-2-------------|2-2-------------|----------------|----------------|

  Chorus
E|----------------|----------------|---------77-----|----------------|
B|4---4--4--------|----------------|6---6----77-1111|----------------|
G|4---4--4-2-2-11-|-----44--222-11-|6---6----88-1111|----------------|
D|4---4--422-2-220|4-4-44402222-220|6---6---999-1111|------11111111--|
A|2---2--20---222-|2-2-2--00-002220|4---4---999-9-9-|--11111111111111|
E|------------0---|------------0---|--------7-7-----|9-9-9-9-9-9-9-9-|
 |
 |
E|----------------|---------0---000|----------------|----------------|
B|4---4--4-222----|----4----2---000|466-6-6612--1010|----------------|
G|4---4--4-222-1--|----4444-2---111|466-6-6611--1111|----------------|
D|4---4--4-222-2--|4-4-4444-2---222|466-6-6611--1111|911-111111111111|
A|2-2-2--2-00022--|2-2--222-0---222|244-4-449---9-9-|911-111111111111|
E|--------0---0---|--------0---0---|----------------|79--9-9-9-9-9-9-|

                    
E|----------------||
B|----------------||
G|----------------||
D|------------11--||
A|11----------11--||
E|9-----------9---||
 |
 |
E|----------------||
B|------------6---||
G|------------6---||
D|11----------6---||
A|11----------4---||
E|9---------------||

  Guitar Solo
E|------12-----12-12--12-----12-------------------------------------------
B|----12-----12-----12-----12---------------------------------------------
G|-14b----14b-----------14h----14b\14-12--14---12q-------12q--12-14-12-14h
D|--------------------------------------14---------14-14----14------------
A|------------------------------------------------------------------------
E|------------------------------------------------------------------------

E|-------------------------------------------------------------------------
B|15-----------------20bb------------17-17-17---20-17-20b-20-17----17-20^17
G|---14-12-14-12-0----------------------------------------------19---------
D|-------------------------------------------------------------------------
A|-------------------------------------------------------------------------
E|-------------------------------------------------------------------------

E|-------------------------------------------------------------------------
B|----17----------------------------------------------------------12-15^12-
G|-19----19-19b---x-x-x-------------------------12----12-14^12-14----------
D|----------------x-x-x-------12----12-14-12-14-12-14----------------------
A|---------------------/14-14----14----------------------------------------
E|-------------------------------------------------------------------------

E|----12----12-15b----15-15q----------17h-17b-17h-17b-17h-17b-17b\17-15----
B|-15-12-15------------------17-15q-17----------------------------------17-
G|-------------------------------------------------------------------------
D|-------------------------------------------------------------------------
A|-------------------------------------------------------------------------
E|-------------------------------------------------------------------------

e-----15----15-17-17^16--17--16-17^16-17b-15h---------------------------------
B--T-----17-----------------------------------17-17-17-17-15b-17bb-------15---
G--A--------------------------------------------------------------------------
D--B--------------------------------------------------------------------------
A-----------------------------------------------------------------------------
E-----------------------------------------------------------------------------

  Rhythm part under guitar solo
E|----------------| played 8 times
B|----------------|
G|----9----777----|
D|----9----7777-7-|
A|7-7-7--455557-7-|
E|0-0---------5-5-|

  Outro guitar solo
E|-------------------------------------------------------------------------
B|-------------------------------------------------------------------------
G|------------------------------2-2---2-2---4---4---4---4-4-4-4-4-4-4-4-4-4
D|7-7-7-7-----7-7^5-5^7-7-7-7---2-2---2-2-4-4---4---4---4-4-4-4-4-4-4-4-4-4
A|----------0-----------------0-------0-0-2-2-2-2---2---2-2-2-2-2-2-2-2-2-2
E|-------------------------------------------------------------------------

E|--------------------12---------------------------------------------------
B|-----------------------15^12----12----12---------------------------------
G|-4-4-------------------------14----14----14-12^14^12----12---------------
D|-4-4-------------------------------------------------14----14^12-14^12---
A|-2-2-------------------------------------------------------------------14
E|-------------------------------------------------------------------------

E|--------------------------------------------------------------------------
B|--------------------------------------------------------------------------
G|--------------------------------------------------------------------------
D|-12-----------------------------------------------------------------------
A|----14^12-14^12^10-12^10--------------------------------------------------
E|-------------------------12-10------10-10------(10)/11/12----(12)\--------
           hold bend
E|-----------------------------------------------0-----19bbb------20bb\20---
B|------20b-20h-20b-20h-20b-20h-20b-20b-20-----0-------19bh--20bb---------17
G|--------------------------------------------------------------------------
D|--------------------------------------------------------------------------
A|--------------------------------------------------------------------------
E|--------------------------------------------------------------------------

E|-----------------15b\15--15-15--15-15--15-15--(15)-(15)-------------------
B|-(17)\-----------15--15b\15-15b\15-15b\15-15b\(15)-(15)-------------------
G|--------------------------------------------------------------------------
D|--------------------------------------------------------------------------  
A|--------------------------------------------------------------------------
E|--------------------------------------------------------------------------

E|-(14)h\14-------------14h-14h-----14h\14----------------------------------
B|--14b--14----14-14----14----------14h\14--------------------14/b-15-------
G|----------14-------14-----------------------------------------------14^12-
D|--------------------------------------------------------------------------
A|--------------------------------------------------------------------------
E|--------------------------------------------------------------------------

E|--------------------------------------------------------------------------
B|--------------------------------------------------------------------------
G|-14-12-------14^12--------------------------------------------------------
D|-------14-12-------14^12-14^12----12--------------------------------------
A|-------------------------------14----14^12\^10-12^10----10^12^10----------
E|-----------------------------------------------------12----------10---5h/5

E|-17b/17-17-^15----17-15-17-15-17---15-15/16----------------
B|---------------17------------------------------------------
G|-----------------------------------------------------------
D|-----------------------------------------------------------
A|-----------------------------------------------------------
E|-----------------------------------------------------------

  Rhythm part under outro guitar solo
E|35--5-----------|----5------10---|----7-----------|----------------|
B|35--5---71210100|35--5---7121277-|----7---14141212|----------------|
G|46--6---71211110|46--6---7211277-|----8---14141313|----------------|
D|57--7---71212120|577-7---7121277-|----9---14141414|--9-9-9-9-9-9-9-|
A|57--7---51012120|577-7---5101055-|9-9-9---12121414|7-9-9-9-9-9-9-9-|
E|35--5---5101010-|355-5---510-----|7-7-----12121212|5-7-7-7-7-7-7-7-|

E|----------------|----------------|----------------|
B|----------------|----------------|----------------|
G|----------------|9-9-------------|--7-7-----------|
D|----------------|9-9-------------|-7-7-7-47-------|
A|----------------|7-7-------------|5-----5--4--5-6-|
E|7---------------|0-0-------------|----------------|

E|----------------|----------------|----------------|----------------|
B|----------------|----------------|----------------|----------------|
G|9-9-------------|--7-7-----------|9-9-------------|--7-7-----------|
D|9-9-------------|-7-7-7-47-------|9-9-------------|-7-7-7-47-------|
A|7-7-------------|5-----5--4--5-6-|7-7-------------|5-----5--4--5-6-|
E|0-0-------------|----------------|0-0-------------|----------------|

E|----------------|----------------|----------------|----------------|
B|----------------|----------------|----------------|----------------|
G|9-9-------------|--7-7-----------|9-9-------------|--7-7-----------|
D|9-9-------------|-7-7-7-47-------|9-9-------------|-7-7-7-47-------|
A|7-7-------------|5-----5--4--5-6-|7-7-------------|5-----5--4--5-6-|
E|0-0-------------|----------------|0-0-------------|----------------|

E|----------------|----------------|----------------|----------------|
B|----------------|----------------|----------------|----------------|
G|9-9-------------|--7-7-----------|9-9-------------|--7-7-----------|
D|9-9-------------|-7-7-7-47-------|9-9-------------|-7-7-7-47-------|
A|7-7-------------|5-----5--4--5-6-|7-7-------------|5-----5--4--5-6-|
E|0-0-------------|----------------|0-0-------------|----------------|

E|----------------|----------------|----------------|
B|----------------|----------------|----------------|
G|9-9-------------|--7-7-----------|9-9-------------|
D|9-9-------------|-7-7-7-47-------|9-9-------------|
A|7-7-------------|5-----5--4--5-6-|7-7-------------|
E|0-0-------------|----------------|0-0-------------|



Important: The song above is NOT stored on the Chordie server. The original song is hosted at www.xguitar.com. Chordie works as a search engine and provides on-the-fly formatting. Chordie does not index songs against artists/composers will. To remove this song please click here.

This song is displayed as text-only. Transposing and tuning is only available for chordpro-songs.

Login - add to songbook

Rating click stars to rate

Layout
Accuracy

SHARE PAGE  




You need to log in to post comments