Immigrant Song

Led Zeppelin

 F#m

Ah,_____________
ah._____________

 AE
  We  come from the land of ice and
snow, from the midnite sun where the hot springs flow.____

(main riff)
The hammer of the gods will drive our ships__ to new lands, to fight the
horde,__ singing and crying:
 EAF#m
  Vahala, I am coming!__________
 A
Chorus: on we sweep_
 B
  with treshing oar,_
 C
  our only goal will be the west-ern
shore

(Main riff)
Ah,____________
ah.____________

 AE
  We  come from the land of ice and snow, from the midnite sun where
the hot springs blow.____

(Main riff)
How soft your fields so green, can whisper tales__ of gore,___ of how we
calmed_ the tides of war.___
 E
  We are your over lords.
 A
Chorus:  on we sweep_
 B
  with treshing oar,_
 C
  our only goal will be the west-ern shore

(main riff)
So now you'd better stop__
and rebuild your ruins,
for peace and trust__ can win the day despite of all your
losing.

----------------------------------|---------------------------------|

--------------------------3-------|-------------------------3-------|
--------------------------3-------|-------------------------3-------|
----------4---------------2-------|---------4---------------2-------|
--------------------------3-------|-------------------------3-------|
--2---2-2---2---2-2---2-2---2---2-|-2---2-2---2---2-2---2-2---2---2-|
----------------------------------|---------------------------------|
--------------------------3-------|---------------------------------|
--------------------------3-------|---------------------------------|
----------4---------------2-------|---------4-----------------------|
--------------------------3-------|---------------------------------|
--2---2-2---2---2-2---2-2---2---2-|-2---2-2---2---2-2---------------|



Corrected by leif_one. View original
A B C E F#m
variations - click chord images
Transpose chords:
Tuning:
Cool service:
View: Size:
A  A  A
Rating:
Layout:
  • Currently 3.5/5 Stars.
  • 1
  • 2
  • 3
  • 4
  • 5
 
Accuracy:
  • Currently 3.4/5 Stars.
  • 1
  • 2
  • 3
  • 4
  • 5
 
click stars to rate
Chordie recommends:
Learn how to play guitar at JamPlay.com
Songbook:
Login to add this song to your songbook
Support the artist
Preview/buy this song
MSN Music
Why this non-profit ad?

 
login to add comments/video/corrections