Guitar Tabs, Chords and Lyrics


Rock And Roll   Led Zeppelin



ROCK AND ROLL Guitar Tab
 A riff
|------------------------|--------------------------|
|------------------------|--------------------------|
|------------------------|--------------------------|
|-2--2-----2--5^2--4-----|-----2--4--2--2--2--4--2--|
|-0--0--4--0--0----0--3'-|-(3)-0--0--0--0--0--0--0--|
|------------------------|--------------------------|
  D riff
|------------------------|--------------------------|
|------------------------|--------------------------|
|-2--2-----2--5^2--4-----|-----2--4--2--2--2--4--2--|
|-0--0--4--0--0----0--3'-|-(3)-0--0--0--0--0--0--0--|
|------------------------|--------------------------|
|------------------------|--------------------------|

  E riff
|---------------------------------------------------|
|------------------------|--------------------------|-
|------------------------|--------------------------|
|------------------------|--------------------------|
|-2--2-----2--5^2--4-----|-----2--4--2--2--2--4--2--|
|-0--0--4--0--0----0--3'-|-(3)-0--0--0--0--0--0--0--|

The riff names coorespond to the chord names of a twelve bar blues in A.  Since
each riff is two measures long the progression looks like this:

| A riff | A riff | D riff | A riff | E riff | A riff |

The verse tab also follow the chords of a twelve bar blues like this.

 A verse riff
|-----------------|            |------------------|
|-----------------|            |------------------|
|-----2-----------| play 3     |-----2-----2------|
|-----2-----------| times      |-----2-----2------|
|-----0-----------| 

Important: The song above is NOT stored on the Chordie server. The original song is hosted at www.xguitar.com. Chordie works as a search engine and provides on-the-fly formatting. Chordie does not index songs against artists/composers will. To remove this song please click here.

This song is displayed as text-only. Transposing and tuning is only available for chordpro-songs.

Login - add to songbook

Rating click stars to rate

Layout
Accuracy

SHARE PAGE  




You need to log in to post comments