Guitar Tabs, Chords and Lyrics


Candy Store Rock   Led Zeppelin



Transcribed by Royal with Cheese (realconqueso@juno.com)

CANDY STORE ROCK
Led Zeppelin
"Presence"

(Jimmy Page & Robert Plant)

Intro (electric)
e|----------------------------|---------------------------------|
B|----------------------------|---------------------------------|
G|----------------------------|---------------------------------|
D|---------3---3----3---------|-----3-3--3-3-------3p2h3--------|
A|----------------------------|--------------------------3p2h3--|
E|-----1----------------------|--1-----------1--1---------------|

e||---------------------------------|---------------------------------||
B||------------------12ss17---------|---------------------------------||
G||----5---5p0---2---12ss17b18------|----5---0-----2---5-h7p5---------||
D||----5---5p0---2------------------|----5---0-----2---5-h7p5---------||
A||-0--------------------------0-0--|-0--------------------------0----||
E||---------------------------------|---------------------------------||
Verse Riff 1(electric)
e|---------------------------------|---------------------------------|
B|--X-X-0--2--0--2-----5----7------|--X-X-0--2--0--2-----7----5------|
G|--X-X-0--2--0--2-----5----7------|--X-X-0--2--0--2-----7----5------|
D|--X-X-0--2--0--2-----5----7------|--X-X-0--2--0--2-----7----5------|
A|---------------------------------|---------------------------------|
E|---------------------------------|---------------------------------|

Verse Riff 1(acoustic)
e|---------------------------------|---------------------------------|
B|--x-x-0--2--0--2-----5----7------|--x-x-0--2--0--2-x-x-7--x-5-x----|
G|--x-x-0--2--0- 2-----5----7------|--x-x-0--2--0--2-x-x-7--x-5-x----|
D|--x-x-0--2--0--2-----5----7------|--x-x-0--2--0--2-x-x-7--x-5-x----|
A|---------------------------------|---------------------------------|
E|---------------------------------|---------------------------------|

Verse Riff variation 1(electric)
e|---------------------------------|----------------------12---------|
B|--X-X-0--2--2--0--2---5-----7----|--X-X-0--2--0--2------13b14------|
G|--X-X-0--2--2--0--2---5-----7----|--X-X-0--2--0--2------------14---|
D|--X-X-0--2--2--0--2---5-----7----|--X-X-0--2--0--2-----------------|
A|---------------------------------|---------------------------------|
E|---------------------------------|---------------------------------|
Verse Ending(electric)
e|---------------------------------|
B|--------5---5--3--3---2--2--2----|
G|--------5---5--4--4---2--2--2----|
D|--------5---5--4--4---2--2--2----|
A|---------------------------------|
E|---------------------------------|

Verse Ending(acoustic)
e|---------------------------------|
B|--2--5---5---5--3--3---2--2--2---|
G|--2--5---5---5--4--4---2--2--2---|
D|--2--5---5---5--4--4---2--2--2---|
A|---------------------------------|
E|---------------------------------|

Verse Riff 2(electric)
e|---------------------------------|---------------------------------|
B|---------------------------------|---------------------------------|
G|------0--2--0--2-----5----7------|------0--2--0--2-----7----5------|
D|------0--2--0--2-----5----7------|------0--2--0--2-----7----5------|
A|---------------------------------|---------------------------------|
E|---------------------------------|---------------------------------|

Verse Riff 3(electric)
e|---------------------------------|---------------------------------|
B|---------------------------------|---------------------7----5------|
G|------0--2--0--2-----5----7------|------0--2--0--2-----7----5------|
D|------0--2--0--2-----5----7------|------0--2--0--2-----7----5------|
A|---------------------------------|---------------------------------|
E|---------------------------------|---------------------------------|

Verse Riff variation 2(electric)
e|---------------------------------|---------------------------------|
B|---------------------------------|---------------------------------|
G|------0--2--2--0--2---5-----7----|------0--2--0--2---16--16----14--|
D|------0--2--2--0--2---5-----7----|------0--2--0--2-------------14--|
A|---------------------------------|---------------------------------|
E|---------------------------------|---------------------------------|

Solo(electric)
e|---------------------------------|---------------------------------|
B|----------4b5--------------------|----------7b8--------------------|
G|----------4b5--------------------|----------7b9--------------------|
D|---------------------------------|---------------------------------|
A|---0---------------------0s10----|---0---------------------7s10----|
E|---------------------------------|---------------------------------|

e|---------------------------------|---------------------------------|
B|----------13b14------------------|----------16b17------------------|
G|----------13b14------------------|----------16b17------------------|
D|---------------------------------|---------------------------------|
A|---0---------------------7s10----|---0-----------------------------|
E|---------------------------------|---------------------------------|
e||-7---5--8---5--7---5--8----------||
B||-7---5--8---5--7---5--8----------||
G||--------------------------5s4s2--||
D||--------------------------5s4s2--||
A||---------------------------------||
E||---------------------------------||

e|-------------------------------------|---------------------------------|
B|5s7b8-7b8-7b8-7b8-7b8-7b8-7b8---8-7b8|r7-------------------------------|
G|5s7b9-7b9-7b9-7b9-7b9-7b9-7b9---9-7b8|r7----5-7p5---7---5h7-5----------|
D|-------------------------------------|------------7---7---------7------|
A|-------------------------------------|---------------------------------|
E|-------------------------------------|---------------------------------|

Bridge (electric)
e|---------------------------------|---------------------------------|
B|--2s3-3-3-2s3-3-3--3-------------|--2s3-3---2s3-3----6-6-6---6-8---|
G|--3s4-4-4-3s4-4-4----5---3h5-----|--3s4-4---3s4-4----5-5-5-7-------|
D|--4s5-5-5-4s5-5-5------5-----5-5-|--4s5-5---4s5-5------------------|
A|--4s5-5-5-4s5-5-5----------------|--4s5-5---4s5-5------------------|
E|---------------------------------|---------------------------------|
Bridge(acoustic)
e|--*---*-*-*---*-*-*--*-*-*-*-*-*-|--*---*-*-*---*-*-*--*-*-*-*-*-*-|
B|--*---*-*-*---*-*-*--*-*-*-*-*-*-|--*---*-*-*---*-*-*--*-*-*-*-*-*-|
G|--*---*-*-*---*-*-*--*-*-*-*-*-*-|--*---*-*-*---*-*-*--*-*-*-*-*-*-|
D|--*---*-*-*---*-*-*--*-*-*-*-*-*-|--*---*-*-*---*-*-*--*-*-*-*-*-*-|
A|--*---*-*-*---*-*-*--*-*-*-*-*-*-|--*---*-*-*---*-*-*--*-*-*-*-*-*-|
E|---------------------------------|---------------------------------|

Bridge ending(electric)
e|---------------------------------|---------------------------------|
B|--2s3-3-3-2s3-3-3--3-------------|--2s3-3-3-2s3-3-3--6-6-6-6-8-----|
G|--3s4-4-4-3s4-4-4----5---3h5-----|--3s4-4-4-3s4-4-4----------------|
D|--4s5-5-5-4s5-5-5------5-----5-5-|--4s5-5-5-4s5-5-5----------------|
A|--4s5-5-5-4s5-5-5----------------|--4s5-5-5-4s5-5-5----------------|
E|---------------------------------|---------------------------------|
Bridge ending(acoustic)
e|--*---*-*-*---*-*-*--*-*-*-*-*-*-|--*---*-*-*---*-*-*--*-*-*-*-*-*-|
B|--*---*-*-*---*-*-*--*-*-*-*-*-*-|--*---*-*-*---*-*-*--*-*-*-*-*-*-|
G|--*---*-*-*---*-*-*--*-*-*-*-*-*-|--*---*-*-*---*-*-*--*-*-*-*-*-*-|
D|--*---*-*-*---*-*-*--*-*-*-*-*-*-|--*---*-*-*---*-*-*--*-*-*-*-*-*-|
A|--*---*-*-*---*-*-*--*-*-*-*-*-*-|--*---*-*-*---*-*-*--*-*-*-*-*-*-|
E|---------------------------------|---------------------------------|

Outro(electric)
e|---------------------------------|---------------------------------|
B|---------------------------------|---------------------------------|
G|---------------------------------|---------------------------------|
D|---------3---3----3--------------|-----3-3--3-3-------3p2h3--------|
A|---------------------------------|--------------------------3p2h3--|
E|-----1---------------------------|--1-----------1--1---------------|

e|---------------------------------|---------------------------------|
B|---------------------------------|---------------------------------|
G|------0--2--0--2-----5----7------|------0--2--0--2-----7----5------|
D|------0--2--0--2-----5----7------|------0--2--0--2-----7----5------|
A|---------------------------------|---------------------------------|
E|---------------------------------|---------------------------------|

Outro (acoustic)
e|-----1-1--1--1-----1-------------|-1--1--1----1--1-----1-1-1-1-1-1-|
B|-----1-1--1--1-----1-------------|-1--1--1----1--1-----1-1-1-1-1-1-|
G|-----2-2--2--2-----2-------------|-2--2--2----2--2-----2-2-2-2-2-2-|
D|-----3-3--3--3-----3-------------|-3--3--3----3--3-----3-3-3-3-3-3-|
A|---------------------------------|---------------------------------|
E|---------------------------------|---------------------------------|

e|---------------------------------|---------------------------------|
B|--x-x-0--2--0--2-----5----7------|--x-x-0--2--0--2-x-x-7--x-5-x----|
G|--x-x-0--2--0- 2-----5----7------|--x-x-0--2--0--2-x-x-7--x-5-x----|
D|--x-x-0--2--0--2-----5----7------|--x-x-0--2--0--2-x-x-7--x-5-x----|
A|---------------------------------|---------------------------------|
E|---------------------------------|---------------------------------|


Song Progression
Intro(electric)  1x

Verse Riff 1(electric) and Verse Riff 1(acoustic) 1x
Verse Riff variation 1(electric) and Verse Riff 1(acoustic) 1x
Verse Riff 1(electric) and Verse Riff 1(acoustic) 1x
Verse Riff variation 1(electric) and Verse Riff 1(acoustic) 1x
Verse Ending(electric) and Verse Ending(acoustic) 4x

Verse Riff 2(electric) and Verse Riff 1(acoustic) 1x
Verse Riff 3(electric) and Verse Riff 1(acoustic) 1x
Verse Riff variation 2(electric) and Verse Riff 1(acoustic) 1x
Verse Riff variation 3(electric) and Verse Riff 1(acoustic) 1x
Verse Ending(electric) and Verse Ending(acoustic) 4x

Verse Riff 2(electric) and Verse Riff 1(acoustic) 1x
Verse Riff 3(electric) and Verse Riff 1(acoustic) 1x
Verse Riff variation 2(electric) and Verse Riff 1(acoustic) 1x
Verse Riff variation 3(electric) and Verse Riff 1(acoustic) 1x
Verse Ending(electric) and Verse Ending(acoustic) 4x

(Solo(electric) and (Verse Riff 1(acoustic) 4x)) 1x
Verse Ending(electric) and Verse Ending(acoustic) 2x
Bridge (electric) and Bridge (acoustic) 3x
Bridge ending(electric) and Bridge ending(acoustic) 1x
Verse Riff 2(electric) and Verse Riff 1(acoustic) 1x
Verse Riff 3(electric) and Verse Riff 1(acoustic) 1x
Verse Riff variation 2(electric) and Verse Riff 1(acoustic) 1x
Verse Riff variation 3(electric) and Verse Riff 1(acoustic) 1x
Verse Ending(electric) and Verse Ending(acoustic) 4x

Verse Riff 2(electric) and Verse Riff 1(acoustic) 1x
Verse Riff 3(electric) and Verse Riff 1(acoustic) 1x
Verse Riff variation 2(electric) and Verse Riff 1(acoustic) 1x
Verse Riff variation 3(electric) and Verse Riff 1(acoustic) 1x
Verse Ending(electric) and Verse Ending(acoustic) 4x

1st 1/2 Bridge (electric) and 1st 1/2 Bridge (acoustic) 2x
Bridge (electric) and Bridge (acoustic) 3x
Outro (electric) and Outro (acoustic) 6x
Lyrics
Well Oh baby baby. Don't you want a man like me?
Oh baby baby, I'm just as sweet as anybody could be
Oh baby baby, I want to look to your eyes, of blue
Oh baby baby, It's more than anybody else could do

Well... Oh baby baby. I wanna see you walkin down the street
Oh baby baby, Well you lookin good enough to eat
Oh baby baby, I dont believe I've tasted this before
Oh baby baby, I want it now
And evermore ho ho.

Yeah Talk about you. 
Yeah Talk about you.

Oh baby baby, You know that I wanted it more
Oh baby baby, How about a kiss good by the store
Oh baby baby, It ain't the wrapping that sells the good
Oh baby baby, I got a sweet tooth when my mouth is full.

Yeah Talk about you. 
Oh Yeah Talk about you.

Yeah Talk about you. 
Yeah Talk about you.
Ooh baby oh baby its alright, its alright
Ohh baby its alright..oh its alright well

Oh baby baby, Well now you sting me like a bee
oh baby baby, I like your honey; it sure likes me
Oh baby baby, I got the spoon inside your jar
Oh baby baby, Dont give me too much, don't make me starve

Oh baby baby, Sugar sittin on a silver plate huh
Oh baby baby, I'll eat 'em up, I just cant wait you know
Oh baby baby, You see me shakin my head
Oh baby baby, Dont give me clover ' it tastes so bad
Tastes so bad Tastes so bad Tastes so bad Tastes so bad 

Oh baby it's alright, oh it's alright
Ooh oh baby It's alright oh It's alright
Oooh Oooh It's alright it's alright
Oooh Oooh It's alright it's alright
Oooh Oooh It's alright it's alright
Oooh Oooh ooh It's alright it's alright
Oooh yeah Oooh yeah It's alright it's alright
Ooooh Ooooh yeah alright
NOTATION USED:
p=pull off 
h=hammer on
s=slide
ss=slide but pick both notes
b=bend
X=right hand palm mute
x=left hand palm mute
*=percusive mute
||-----||=play twice
--


Important: The song above is NOT stored on the Chordie server. The original song is hosted at www.xguitar.com. Chordie works as a search engine and provides on-the-fly formatting. Chordie does not index songs against artists/composers will. To remove this song please click here.

This song is displayed as text-only. Transposing and tuning is only available for chordpro-songs.

Login - add to songbook

Rating click stars to rate

Layout
Accuracy

SHARE PAGE  




You need to log in to post comments