Guitar Tabs, Chords and Lyrics


For Your Life   Led Zeppelin



Transcription by Stephen Iggulden (titanicterrarium@hotmail.com) 

FOR YOUR LIFE
Led Zeppelin
"Presence"

(Page, Plant)

Intro to verses: (for intro to third verse, play the G majors as G minors)
--3---3-----------3---3------3---3-----------3---3----
--3---3-----------3---3------3---3-----------3---3----
--4---4---5-3-5---4---4------4---4---5-3-5---4---4----
--5---5---5-3-5---5---5------5---5---5-3-5---5---5----
--5---5---3-3-3---5---5------5---5---3-3-3---5---5----
--3---3-----------3---3------3---3-----------3---3----

--3---3-----------3---3------3---3-----------3---3------------
--3---3-----------3---3------3---3-----------3---3------------
--4---4---5-3-5---4---4------4---4---5-3-5---4---4----5-3-5---
--5---5---5-3-5---5---5------5---5---5-3-5---5---5----5-3-5---
--5---5---3-3-3---5---5------5---5---3-3-3---5---5----3-3-3---
--3---3-----------3---3------3---3-----------3---3------------
Verses: (repeat this bit three times)
----------------------------------------------------------------------
----------------------------------------------------------------------
--5--7-5-5-5-7-5----5--7-5-5-5-7-5------------------------------------
--5--7-5-5-5-7-5----5--7-5-5-5-7-5------------------------------------
--3--3-3-3-3-3-3----3--3-3-3-3-3-3------------------------------------
----------------------------------------------------------------------

--3---3-----------3---3------3---3-----------3---3---------------------
--3---3-----------3---3------3---3-----------3---3---------------------
--4---4---5-3-5---4---4------4---4---5-3-5---4---4----5-3-5---5-3------
--5---5---5-3-5---5---5------5---5---5-3-5---5---5----5-3-5---5-3-5-5--
--5---5---3-3-3---5---5------5---5---3-3-3---5---5----3-3-3---3-3-5-5--
--3---3-----------3---3------3---3-----------3---3----------------3-3--
                                                       
                                                      first    third
                                                       two      time
                                                      times
Tail end to each verse:
----------------------------------------------------------------------
----------------------------------------------------------------------
--8---8--8----8--10--10-----------------------------------------------
--8---8--8----8--10--10---7--8----8--10--10---5-----------------------
--6---6--6----6---8---8---7--8----8--10--10---5-----------------------
--------------------------5--6----6---8---8---3-----------------------
                                         
                                          first time only
After second verse: (repeat it a few times)
----------------------------------------------------------------------
----------------------------------------------------------------------
------------5----7--7--5------------5---------------------------------
---7--5-6-7---7--7--7--5---7--5-6-7---7-------------------------------
---7-------------5--5--5---7------------------------------------------
---5-----------------------5------------------------------------------
sometimes you go on with this:
----------------------------------------------------------------------
----------------------------------------------------------------------
--------5----------5----------5---------------------------------------
--5-6-7---7--5-6-7---7--5-6-7---7-------------------------------------
----------------------------------------------------------------------
----------------------------------------------------------------------
jingle-jangle bit: (repeat a few times)
---3------------------------------------------------------------------
---3-----------1------1------1------1---------------------------------
---4---------2------0------0------0-----------------------------------
---5-------3------2------0--------------------------------------------
---5----------------------------3------1-0----------------------------
---3---------------------------------------3-1-3-3-3-3-1-3------------
guitar solo: (chords under)
--3------------------------3------------------------------------------
--3--------------4--4--3---3------------------------------------------
--3---------3----5--5--3---4---------3--------------------------------
--5---3-4-5---5--5--5--3---5---3-4-5---5------------------------------
--5--------------3--3--3---5------------------------------------------
--3------------------------3------------------------------------------
                               
                                this bit gets repeated every so often

...then repeat the above, but up two frets

guitar solo for "for your life"
by led zeppelin

-----------------------------------------12--------12--------12--------12-
-11~~--8-10-11-8-10-11-10~-10^r~---10-11-----10-11-----10-11-----10-11----
---------------------------------------------------------------------------
---------------------------------------------------------------------------
---------------------------------------------------------------------------
---------------------------------------------------------------------------

-------12~-----------8-10-12-10--8-10-8-10-8----------------------------
-10-11------10h11p10----------------------------11-10-10^-10---11p10\8~-
------------------------------------------------------------------------
------------------------------------------------------------------------
------------------------------------------------------------------------
------------------------------------------------------------------------

----------------------------------------------------------------
----------------------------------------------------------------
-10h11p10~------------------------------------------------------
-----------8----------------------------------------------------
-------------10-8-10~-10-9-8-------------1----------------------
-----------------------------10-10-9-8-3----1-3-1-3--1-3---3--1-

-------------------------------------------------------------------------
-----------------------------11-----11----13^----11-14---14---14---------
---------------------------------12----12-----------13^--13^--13^--------
--------8-10-8-10-8-----8-10---------------------------------------------
-8-9-10-------------10---------------------------------------------------
-------------------------------------------------------------------------

-------------------------------------------------------------------------
-14h15p14p13\11----------11-10h11p10p8-11-10-----------------------11----
----------------12~---10--------------------12-12---10-12-10-12-10----12-
-------------------------------------------------------------------------
-------------------------------------------------------------------------
-------------------------------------------------------------------------

----------------------------------------------------13----------------
-------------11----11----11-----------13---------15----13h14p13--11---
-12-10----------12----12----12/14~--14--14-12----------------------12-
-------8--------------------------------------------------------------
---------10-----------------------------------------------------------
----------------------------------------------------------------------
         *(slow bend)
-------13^----18-15----18-------18----------------------------------------------------15--
-13-15--------------18----18-18^---18^--18-15-----------------------------18----------18^-
----------------------------------------------15^-13-15~--13-15.--15-(15)^---15-(15)^-----
------------------------------------------------------------------------------------------
------------------------------------------------------------------------------------------
------------------------------------------------------------------------------------------

Then jingle-jangle bit, then back to intro to third verse.

--


Important: The song above is NOT stored on the Chordie server. The original song is hosted at www.xguitar.com. Chordie works as a search engine and provides on-the-fly formatting. Chordie does not index songs against artists/composers will. To remove this song please click here.

This song is displayed as text-only. Transposing and tuning is only available for chordpro-songs.

Login - add to songbook

Rating click stars to rate

Layout
Accuracy

SHARE PAGE  




You need to log in to post comments