Guitar Tabs, Chords and Lyrics


Atheist Anthem    Leftover Crack



ATHEIST ANTHEM by LEFTOVER CRACK.  Album: Mediocore Generica (2002)
A=left guitar  B=right guitar  A&B=both
:

e|-----------------------------------|
B|---------------*-------------------|
G|--*---*---*---5----*---*---*---*---|
D|-5---4---2----5---5---4---2---3----|
A|-5---4---2----3---5---4---2---3----|
E|-3---2---0--------3---2---0---1----|
:

e|--------------------------|
B|------------------*---*---|
G|-12---14---16---17---17---|
D|--x----x----x----x---x----|
A|-10---12---14---15---15---|
E|--------------------------|

e|--------------------------|
B|--------------------------|
G|-12---11----9-----*----*--|
D|--x----x----x---10---10---|
A|-10----9----7---10---10---|
E|-----------------8----8---|
:
Then play verse#A&Bx2, chorus#Ax2 or chorus#Bx2, and verse#A&B
:

e|------------------------------------------------------->
B|------------------------------------------------------->
G|-----------5----7----12-14-12-11-12-14-12-11-9----5---->
D|-5----2----5----7-----x--x--x--x--x--x--x--x-x----x---->
A|-5----2----3----5----10-12-10--9-10-12-10--9-7----3---->
E|-3----0------------------------------------------------>

e|------------------------------------------------------->
B|------------------------------------------------------->
G|-----------5----7------*-----------*---------9----5---->
D|-5----2----5----7-----5-----------2----------9----5---->
A|-5----2----3----5-----5-----------2----------7----3---->
E|-3----0---------------3-----------0-------------------->
A

Important: The song above is NOT stored on the Chordie server. The original song is hosted at www.xguitar.com. Chordie works as a search engine and provides on-the-fly formatting. Chordie does not index songs against artists'/composers' will. To remove this song please click here.

This song is displayed as text-only. Transposing and tuning is only available for chordpro-songs.

Login - add to songbook

Rating click stars to rate

Layout
Accuracy

SHARE PAGE  




You need to log in to post comments