Guitar Tabs, Chords and Lyrics


Gay Rude Boys Unite    Leftover Crack



This is Gay Rude Boys Unite by Leftover Crack. Enjoy!


Intro:
e|----------------------------|
B|----------------------------|
G|----------------------------|
D|---------------------(4x)---|
A|----224420-0442244----------|
E|--00------------------------|

Verse (ska):
e|--x7x9x7x9---5x5--7x7----------|
B|--x9x9x9x9---5x5--7x7----------|
G|--x9x9x9x9---6x6--8x8----------|
D|--x9x9x9x9---7x7--9x9---(4x)---|
A|--x7x7x7x7---7x7--9x9----------|
E|-------------5x5--7x7----------|

Chorus:
e|-----------------------------------------------------------------------|
B|-----------------------------------------------------------------------|
G|--6--9--13--16---14-13----6--9--13--11--9-11-----------66-666----------|
D|--x--x---x---x----x--x----x--x---x--x---x-x----(4x)----66-666---(8x)---|
A|--4--7--11--14---12-11----4--7--11--9---7-6------------44-444----------|
E|-----------------------------------------------------------------------|

Verse (ska):
e|--x7x9x7x9---5x5--7x7----------|
B|--x9x9x9x9---5x5--7x7----------|
G|--x9x9x9x9---6x6--8x8----------|
D|--x9x9x9x9---7x7--9x9---(4x)---|
A|--x7x7x7x7---7x7--9x9----------|
E|-------------5x5--7x7----------|

Chorus:
e|-----------------------------------------------------------------------|
B|-----------------------------------------------------------------------|
G|--6--9--13--16---14-13----6--9--13--11--9-11-----------66-666----------|
D|--x--x---x---x----x--x----x--x---x--x---x-x----(4x)----66-666---(8x)---|
A|--4--7--11--14---12-11----4--7--11--9---7-6------------44-444----------|
E|-----------------------------------------------------------------------|

Intro (again):
e|----------------------------|
B|----------------------------|
G|----------------------------|
D|---------------------(4x)---|
A|----224420-0442244----------|
E|--00------------------------|

Verse (ska):
e|--x7x9x7x9---5x5--7x7--------------|
B|--x9x9x9x9---5x5--7x7--------------|
G|--x9x9x9x9---6x6--8x8----------9---|
D|--x9x9x9x9---7x7--9x9---(4x)---9---|
A|--x7x7x7x7---7x7--9x9----------7---|


Important: The song above is NOT stored on the Chordie server. The original song is hosted at www.xguitar.com. Chordie works as a search engine and provides on-the-fly formatting. Chordie does not index songs against artists'/composers' will. To remove this song please click here.

This song is displayed as text-only. Transposing and tuning is only available for chordpro-songs.

Login - add to songbook

Rating click stars to rate

Layout
Accuracy

SHARE PAGE  




You need to log in to post comments