Guitar Tabs, Chords and Lyrics


Nazi White Trash    Leftover Crack



intro:
e|---------------------------------------------------------------------------------------------|
B|---------------------------------------------------------------------------------------------|
G|---------------------------------------------------------------------------------------------|
D|-----------------------------------------2---2---2---2-----4---4---4---4-----2---2---2---2---|
A|----2---2---2---2---2---2---2---2------2---2---2---2-----4---4---4---4-----2---2---2---2-----|
E|--0---0---0---0---0---0---0---0--------------------------------------------------------------|

intro (2):
e|----------------------|
B|----------------------|
G|-----4--6--4----------|
D|--2--4--6--4---(3x)---|
A|--2--2--4--2----------|
E|--0-------------------|

ska verse:
e|--7x7x7x7x-7x7x7x7x-4x4x4x4x-7x7x7x7x---------------------------------------------------|
B|--9x9x9x9x-7x7x7x7x-6x6x6x6x-7x7x7x7x---------------------------------------------------|
G|--9x9x9x9x-8x8x8x8x-6x6x6x6x-8x8x8x8x----------The part after this uses a wa wa pedal---|
D|--9x9x9x9x-9x9x9x9x-6x6x6x6x-9x9x9x9x---(2x)---with the same chords---------------------|
A|--7x7x7x7x-9x9x9x9x-4x4x4x4x-9x9x9x9x---------------------------------------------------|
E|-----------7x7x7x7x----------7x7x7x7x---------------------------------------------------|

chorus:
e|----------------------|
B|----------------------|
G|--------6-------------|
D|--2--6--6--7---(4x)---|
A|--2--6--4--7----------|
E|--0--4-----5----------|

ska verse:
e|--7x7x7x7x-7x7x7x7x-4x4x4x4x-7x7x7x7x---------------------------------------------------|
B|--9x9x9x9x-7x7x7x7x-6x6x6x6x-7x7x7x7x---------------------------------------------------|
G|--9x9x9x9x-8x8x8x8x-6x6x6x6x-8x8x8x8x----------The part after this uses a wa wa pedal---|
D|--9x9x9x9x-9x9x9x9x-6x6x6x6x-9x9x9x9x---(2x)---with the same chords---------------------|
A|--7x7x7x7x-9x9x9x9x-4x4x4x4x-9x9x9x9x---------------------------------------------------|
E|-----------7x7x7x7x----------7x7x7x7x---------------------------------------------------|

chorus:
e|--------------------------|
B|--------------------------|
G|--------6-----------------|
D|--2--6--6--7---(4x)---2---|
A|--2--6--4--7----------2---|
E|--0--4-----5----------0---|

WE HOPE YOU DIE SOONER!
e|---------------------------|
B|---------------------------|
G|--------6------------------|
D|--2--6--6--7---(10x)---2---|
A|--2--6--4--7-----------2---|
E|--0--4-----5-----------0---|

intro:
e|---------------------------------------------------------------------------------------------|
B|---------------------------------------------------------------------------------------------|
G|---------------------------------------------------------------------------------------------|
D|-----------------------------------------2---2---2---2-----4---4---4---4-----2---2---2---2---|
A|----2---2---2---2---2---2---2---2------2---2---2---2-----4---4---4---4-----2---2---2---2-----|
E|--0---0---0---0---0---0---0---0--------------------------------------------------------------|

intro (2):
e|-------------------|
B|-------------------|
G|-----4--6--4-------|
D|--2--4--6--4---2---|
A|--2--2--4--2---2---|


Important: The song above is NOT stored on the Chordie server. The original song is hosted at www.xguitar.com. Chordie works as a search engine and provides on-the-fly formatting. Chordie does not index songs against artists'/composers' will. To remove this song please click here.

This song is displayed as text-only. Transposing and tuning is only available for chordpro-songs.

Login - add to songbook

Rating click stars to rate

Layout
Accuracy

SHARE PAGE  




You need to log in to post comments