Guitar Tabs, Chords and Lyrics


Again  Lenny Kravitz

[Intro] 
Asus2 F#madd11 E D*

Riff1 (Intro / chorus)
e---------0---------------0---------------0------------0h2~p0--------

B-----0-------0-------0-------0-------0-------0---3-----------0h2----
G-------2---2---2-------2---2---2-------1---1-----2---------------2--
D---2---------------4-----------------------------0------------------
A-0---------------4-----------------2--------------------------------
E---------------------------------0----------------------------------
Asus2 F#madd11 E D*

[D]  I've been searching [E]for___ [F#m]you__ou
[D]  I heard a cry with[E]in__ my__ [F#m]soul__
I've [D]never_ had_ a_ yearning_ quite_ like_ [E]this_ be[F#m]fo_o_ore_
Now that you [D]are__     walk_ing_ right [E]through__ my_ [F#m]doo__o_oor__
[Cborus]
[Asus2] All of my_ li[F#madd11]__i_ife__    Where have you b[E]ee_e_eeen
(aaaaaaaaaaaa__
I wonder if [D]I'll__   ever_ see_ you_ a_gain__
aaaaaaaaaaaaaah ever_ see_ you_ a_gain__)
[Asus2] And if that day [F#madd11]co_o_omes__   I know we could w[E]i___in
(aaaaaaaaa__
I wonder if [D]I'll__   ever_ see_ you_ a_gain__
aaaaaaaaaaaaaah ever_ see_ you_ a_gain__)
[D]  A sacred gift of [E]hea___ea__[F#m]ven__
[D]  For better worse w[E]her__e___[F#m]ver_
And I_ [D]would_ never_ let_ somebody_ [E]break_ you__ [F#m]down__.
Or take your [D]crown__            [E]ne_____[F#m]ver____
[Repeat cborus]
[Bridge] (A capella)
At_ [Am]ev_ery_ time_, I've always known__
That_ [G]you_ where_ here_, upon your throne__
A_ [Am]lo_nely_ queen_, without her king__
I_ [G]longed_ for_ you_,  MY LOVE FOREVER___
[Solo]
[Asus2]        [F#madd11]           [E]    [D]  [Asus2]        [F#madd11]           [E]    [D]  Solo
e--------------------------------------12b14~~~~r12-10-9-10-----------------

---------
B--------12b14~~~~~14~~14~~~r12~~~~-10----------------------12b14-10h12p10h1
2p10h12--
G-9~~~~---------------------------------------------------------------------

---------
D---------------------------------------------------------------------------
---------
A---------------------------------------------------------------------------
---------
E---------------------------------------------------------------------------
---------
e--------------9-10-12~~~~~b14~~~r12~~~17b19~~r17~~~~--19b21~~r19-17h19p17--
21b22r21-17h19p17-------------
B---10-9-10-12--------------------------------------------------------------
------------------------------
G-9-------------------------------------------------------------------------
------------------0h2p0h2p0h2-
D---------------------------------------------------------------------------
------------------------------
A---------------------------------------------------------------------------
------------------------------
E---------------------------------------------------------------------------
------------------------------
[Cborus]
[Asus2] All of my_ li[F#madd11]__i_ife__    Where have you b[E]ee_e_eeen
(aaaaaaaaaaaa__
I wonder if [D]I'll__   ever_ see_ you_ a_gain__
aaaaaaaaaaaaaah ever_ see_ you_ a_gain__)
[Asus2] And if that day [F#madd11]co_o_omes__   I know we could w[E]i___in
(aaaaaaaaa__
I wonder if [D]I'll__   ever_ see_ you_ a_gain__
aaaaaaaaaaaaaah ever_ see_ you_ a_gain__)
[Repeat cborus]
[Repeat cborus]
[Outro]
[Asus2]I_ wonder_ if_ [F#madd11]I'll___ ever_ see_ you_ [E]again
I wonder if [D]I'll__   ever_ see_ you_ a_gain__
[Asus2]I_ wonder_ if_ [F#madd11]I'll___ ever_ see_ you_ [E]again
I wonder if [D]I'll__   ever_ see_ you_ a_gain__
[Asus2]I_ wonder_ if_ [F#madd11]I'll___ ever_ see_ you_ [E]again
I wonder if [D]I'll__   ever_ see_ you_ a_gain__
Fade out..
Chords:
Asus2 x02200
F#madd11 x44200
E 022100
D xx0232
[F#]Am       [244322]x02210
G 320033
Transcribed by arjan@rawktabs.tmfweb.nl
____ _ _ _
| _ __ ___ _| | _| |_ __ _| |__ ___
| |_) / _` / / / |/ / __/ _` | '_ / __|
| _ < (_| | V V /| <| || (_| | |_) __
|_| ___,_| _/_/ |_|_____,_|_.__/|___/
http://www.RawkTabs.com

Important: The song above is NOT stored on the Chordie server. The original song is hosted at www.xguitar.com. Chordie works as a search engine and provides on-the-fly formatting. Chordie does not index songs against artists'/composers' will. To remove this song please click here.

Text color:
Chord color:
Chord grids: 
Font size:    
Page size: 

Am Asus2 D E F# F#m F#madd11 G
variations - click chord images

Login - add to songbook

Transpose chords

Tuning

Rating click stars to rate

Layout
Accuracy

SHARE PAGE  




You need to log in to post comments