Chordie logo


National Anthem    Less Than Jake



Song: National anthem
Artist:Less than jake
Tabbed by: Tom jackson
E-mail:tj_farmin@yahoo.com

Just got the new LTJ album and it rocks, just thought
id try to tab out my fav song,im pretty sure its right
but iv'e probably left out a few things.
This is my first tab too so please rate!

\\ = Slide down

Standard tuning:

intro:

Guitar 1
e|--7-00-5-4-2-4-2-000--|
b|----------------------|
g|----------------------| play 10 times
d|----------------------|
a|----------------------|
E|----------------------|

Guitar 2
e|---------------------------------------------------------------|
b|---------------------------------------------------------------|
g|----------------6-6-6-6-6-6-6-6-6-6-6-6------------------------| come in after gutiar 1 has finished its riff twice
d|--2-------------6-6-6-6-6-6-6-6-6-6-6-6-4-4-4-4-4-4-4-4-4-4-4-4|
a|--2-let-ring----4-4-4-4-4-4-4-4-4-4-4-4-4-4-4-4-4-4-4-4-4-4-4-4|
E|--0-------------------------------------2-2-2-2-2-2-2-2-2-2-2-2|

e|------------------------------------------------------------------------------------------------------------|
b|------------------------------------------------------------------------------------------------------------|
g|--------------------------9-9-9-9-9-8-8-8-8-8-8-8-6-6-6-6-6-6-6-6-6-6-6-6-----------------------------------|
d|--2-2-2-2-2-2-2-2-2-2-2-2-9-9-9-9-9-8-8-8-8-8-8-8-6-6-6-6-6-6-6-6-6-6-6-6-4-4-4-4-4-4-4-4-4-4-4-4-2---------|
a|--2-2-2-2-2-2-2-2-2-2-2-2-7-7-7-7-7-6-6-6-6-6-6-6-4-4-4-4-4-4-4-4-4-4-4-4-4-4-4-4-4-4-4-4-4-4-4-4-2-let-ring|
E|--0-0-0-0-0-0-0-0-0-0-0-0-------------------------------------------------2-2-2-2-2-2-2-2-2-2-2-2-0---------|

Verse 2:

Guitar 2
e|---------------------------------------------------------------------------------------------------------------------|
b|---------------------------------------------------------------------------------------------------------------------|
g|--6-6-6-6-6-6-6-6-6-6-6-6-------------------------------------------6-6-6-6-6-6-6-6-6-6-6-6--------------------------|
d|--6-6-6-6-6-6-6-6-6-6-6-6-4-4-4-4-4-4-4-4-4-4-4-4-2-----------------6-6-6-6-6-6-6-6-6-6-6-6-4-4-4-4-4-4-4-4-4-4-4-4--|
a|--4-4-4-4-4-4-4-4-4-4-4-4-4-4-4-4-4-4-4-4-4-4-4-4-2-let-ring--------4-4-4-4-4-4-4-4-4-4-4-4-4-4-4-4-4-4-4-4-4-4-4-4--|
E|--------------------------2-2-2-2-2-2-2-2-2-2-2-2-0-----------------------------------------2-2-2-2-2-2-2-2-2-2-2-2--|

Pre-Chorus:

Guitar 2
e|--------------------------------------------------------------------------------------------------------|
b|--------------------------------------------------------------------------------------------------------|
g|--2-2-2-2-2-2-2-2-2-2-2-2-4-4-4-4-4-4-4-4-4-4-4-4-2-2-2-2-2-2-2-2-2-2-2-2-4-4-4-4-4-4-4-4-4-4-4-4--4-5--|
d|--2-2-2-2-2-2-2-2-2-2-2-2-4-4-4-4-4-4-4-4-4-4-4-4-2-2-2-2-2-2-2-2-2-2-2-2-4-4-4-4-4-4-4-4-4-4-4-4--4-5--|
a|--0-0-0-0-0-0-0-0-0-0-0-0-2-2-2-2-2-2-2-2-2-2-2-2-0-0-0-0-0-0-0-0-0-0-0-0-2-2-2-2-2-2-2-2-2-2-2-2--2-3--|
E|--------------------------------------------------------------------------------------------------------|

Chorus:

Guitar 2
e|--------------------------------------------------------------------------------------------------------|
b|--------------------------------------------------------------------------------------------------------|
g|--6-6-6-6-6-6-6-6-6-6-6-6-9-9-9-9-9-9-9-9-9-9-9-9-------------------------4-4-4-4-4-4-4-4-4-4-4-4--4-5--|
d|--6-6-6-6-6-6-6-6-6-6-6-6-9-9-9-9-9-9-9-9-9-9-9-9-7-7-7-7-7-7-7-7-7-7-7-7-4-4-4-4-4-4-4-4-4-4-4-4--4-5--|
a|--4-4-4-4-4-4-4-4-4-4-4-4-7-7-7-7-7-7-7-7-7-7-7-7-7-7-7-7-7-7-7-7-7-7-7-7-2-2-2-2-2-2-2-2-2-2-2-2--2-3--|
E|--------------------------------------------------5-5-5-5-5-5-5-5-5-5-5-5-------------------------------|

e|---------------------------------------------------------------------------------------------------|
b|---------------------------------------------------------------------------------------------------|
g|--6-6-6-6-6-6-6-6-6-6-6-6-------------------------2-2-2-2-2-2-2-2-2-2-2-2-4-4-4-4-4-4-4-4-4-4-4-4--|
d|--6-6-6-6-6-6-6-6-6-6-6-6-4-4-4-4-4-4-4-4-4-4-4-4-2-2-2-2-2-2-2-2-2-2-2-2-4-4-4-4-4-4-4-4-4-4-4-4--|
a|--4-4-4-4-4-4-4-4-4-4-4-4-4-4-4-4-4-4-4-4-4-4-4-4-0-0-0-0-0-0-0-0-0-0-0-0-2-2-2-2-2-2-2-2-2-2-2-2--|
E|--------------------------2-2-2-2-2-2-2-2-2-2-2-2--------------------------------------------------|

Pre-verse:

Guitar 1
e|--7-00-5-4-2-4-2-000--|
b|----------------------|
g|----------------------| play 8 times
d|----------------------|
a|----------------------|
E|----------------------|

Guitar 2
e|---------------------------------------------------------------------------------------------------|
b|---------------------------------------------------------------------------------------------------|
g|--------------------------9-9-9-9-9-8-8-8-8-8-8-8-6-6-6-6-6-6-6-6-6-6-6-6--------------------------|
d|--2-2-2-2-2-2-2-2-2-2-2-2-9-9-9-9-9-8-8-8-8-8-8-8-6-6-6-6-6-6-6-6-6-6-6-6-4-4-4-4-4-4-4-4-4-4-4-4--|
a|--2-2-2-2-2-2-2-2-2-2-2-2-7-7-7-7-7-6-6-6-6-6-6-6-4-4-4-4-4-4-4-4-4-4-4-4-4-4-4-4-4-4-4-4-4-4-4-4--|
E|--0-0-0-0-0-0-0-0-0-0-0-0-------------------------------------------------2-2-2-2-2-2-2-2-2-2-2-2--|

e|--------------------------------------------------------------------------------------------------------------|
b|--------------------------------------------------------------------------------------------------------------|
g|--------------------------9-9-9-9-9-8-8-8-8-8-8-8-6-6-6-6-6-6-6-6-6-6-6-6-------------------------------------|
d|--2-2-2-2-2-2-2-2-2-2-2-2-9-9-9-9-9-8-8-8-8-8-8-8-6-6-6-6-6-6-6-6-6-6-6-6-4-4-4-4-4-4-4-4-4-4-4-4-2-----------|
a|--2-2-2-2-2-2-2-2-2-2-2-2-7-7-7-7-7-6-6-6-6-6-6-6-4-4-4-4-4-4-4-4-4-4-4-4-4-4-4-4-4-4-4-4-4-4-4-4-2-let-ring--|
E|--0-0-0-0-0-0-0-0-0-0-0-0-------------------------------------------------2-2-2-2-2-2-2-2-2-2-2-2-0-----------|

Verse 2:

Guitar 2
e|-------------------------------------------------------------------------------------------------------------------|
b|-------------------------------------------------------------------------------------------------------------------|
g|--6-6-6-6-6-6-6-6-6-6-6-6-------------------------------------------6-6-6-6-6-6-6-6-6-6-6-6------------------------|
d|--6-6-6-6-6-6-6-6-6-6-6-6-4-4-4-4-4-4-4-4-4-4-4-4-2-----------------6-6-6-6-6-6-6-6-6-6-6-6-4-4-4-4-4-4-4-4-4-4-4-4|
a|--4-4-4-4-4-4-4-4-4-4-4-4-4-4-4-4-4-4-4-4-4-4-4-4-2-let-ring--------4-4-4-4-4-4-4-4-4-4-4-4-4-4-4-4-4-4-4-4-4-4-4-4|
E|--------------------------2-2-2-2-2-2-2-2-2-2-2-2-0-----------------------------------------2-2-2-2-2-2-2-2-2-2-2-2|

Pre-Chorus:

Guitar 2
e|--------------------------------------------------------------------------------------------------------|
b|--------------------------------------------------------------------------------------------------------|
g|--2-2-2-2-2-2-2-2-2-2-2-2-4-4-4-4-4-4-4-4-4-4-4-4-2-2-2-2-2-2-2-2-2-2-2-2-4-4-4-4-4-4-4-4-4-4-4-4--4-5--|
d|--2-2-2-2-2-2-2-2-2-2-2-2-4-4-4-4-4-4-4-4-4-4-4-4-2-2-2-2-2-2-2-2-2-2-2-2-4-4-4-4-4-4-4-4-4-4-4-4--4-5--|
a|--0-0-0-0-0-0-0-0-0-0-0-0-2-2-2-2-2-2-2-2-2-2-2-2-0-0-0-0-0-0-0-0-0-0-0-0-2-2-2-2-2-2-2-2-2-2-2-2--2-3--|
E|--------------------------------------------------------------------------------------------------------|

Chorus:

Guitar 2
e|--------------------------------------------------------------------------------------------------------|
b|--------------------------------------------------------------------------------------------------------|
g|--6-6-6-6-6-6-6-6-6-6-6-6-9-9-9-9-9-9-9-9-9-9-9-9-------------------------4-4-4-4-4-4-4-4-4-4-4-4--4-5--|
d|--6-6-6-6-6-6-6-6-6-6-6-6-9-9-9-9-9-9-9-9-9-9-9-9-7-7-7-7-7-7-7-7-7-7-7-7-4-4-4-4-4-4-4-4-4-4-4-4--4-5--|
a|--4-4-4-4-4-4-4-4-4-4-4-4-7-7-7-7-7-7-7-7-7-7-7-7-7-7-7-7-7-7-7-7-7-7-7-7-2-2-2-2-2-2-2-2-2-2-2-2--2-3--|
E|--------------------------------------------------5-5-5-5-5-5-5-5-5-5-5-5-------------------------------|

e|---------------------------------------------------------------------------------------------------|
b|---------------------------------------------------------------------------------------------------|
g|--6-6-6-6-6-6-6-6-6-6-6-6-------------------------2-2-2-2-2-2-2-2-2-2-2-2-4-4-4-4-4-4-4-4-4-4-4-4--|
d|--6-6-6-6-6-6-6-6-6-6-6-6-4-4-4-4-4-4-4-4-4-4-4-4-2-2-2-2-2-2-2-2-2-2-2-2-4-4-4-4-4-4-4-4-4-4-4-4--|
a|--4-4-4-4-4-4-4-4-4-4-4-4-4-4-4-4-4-4-4-4-4-4-4-4-0-0-0-0-0-0-0-0-0-0-0-0-2-2-2-2-2-2-2-2-2-2-2-2--|
E|--------------------------2-2-2-2-2-2-2-2-2-2-2-2--------------------------------------------------|

Outro:

Guitar 2
e|---------------------------------------------------------------------------------------------------|
b|---------------------------------------------------------------------------------------------------|
g|--9-9-9-9-9-9-9-9-9-9-9-9-------------------------6-6-6-6-6-6-6-6-6-6-6-6--------------------------|play 4 times
d|--9-9-9-9-9-9-9-9-9-9-9-9-7-7-7-7-7-7-7-7-7-7-7-7-6-6-6-6-6-6-6-6-6-6-6-6-4-4-4-4-4-4-4-4-4-4-4-4--|
a|--7-7-7-7-7-7-7-7-7-7-7-7-7-7-7-7-7-7-7-7-7-7-7-7-4-4-4-4-4-4-4-4-4-4-4-4-4-4-4-4-4-4-4-4-4-4-4-4--|
E|--------------------------5-5-5-5-5-5-5-5-5-5-5-5-------------------------2-2-2-2-2-2-2-2-2-2-2-2--|

Guitar 1
e|--7-00-5-4-2-4-2-000--|
b|----------------------|
g|----------------------| play 4 times after gutiar 2 has finished its riff 3 times
d|----------------------|
a|----------------------|
E|----------------------|

Last little part:

Guitar 2
e|----------------------------------------------------|
b|----------------------------------------------------|
g|------------------------------------------------9\\--|
d|--2-2-2-2-2-2-2-2-2-2-2-2-2-2-2-2-2-2-2-2-2-2-2-9\\--|
a|--2-2-2-2-2-2-2-2-2-2-2-2-2-2-2-2-2-2-2-2-2-2-2-7\\--|
E|--0-0-0-0-0-0-0-0-0-0-0-0-0-0-0-0-0-0-0-0-0-0-0-----|




Important: The song above is NOT stored on the Chordie server. The original song is hosted at www.xguitar.com. Chordie works as a search engine and provides on-the-fly formatting. Chordie does not index songs against artists/composers will. To remove this song please click here.

This song is displayed as text-only. Transposing and tuning is only available for chordpro-songs.

Login - add to songbook

Rating click stars to rate

Layout
Accuracy

SHARE PAGE  




You need to log in to post comments