Guitar Tabs, Chords and Lyrics


Last Hour of the Last Day of Work    Less Than Jake



by : Tim :P
Tuning:regular

verse (x4)
e|---------------------------------------------------------------------------|
B|---------------------------------------------------------------------------|
G|-6-6-6-6-6-6-6-6-6--6-6-6-6-6-6-6-6-6--------------------------------------|
D|-6-6-6-6-6-6-6-6-6--6-6-6-6-6-6-6-6-6--3-3-3-3-3-3-3-3-3--4-4-4-4-4-4-4-4-4|
A|-4-4-4-4-4-4-4-4-4--4-4-4-4-4-4-4-4-4--3-3-3-3-3-3-3-3-3--4-4-4-4-4-4-4-4-4|
E|---------------------------------------1-1-1-1-1-1-1-1-1--2-2-2-2-2-2-2-2-2|

bridge
e|---------------------------------------------------------------------------|
B|---------------------------------------------------------------------------|
G|---------------------------------------------------------------------------|
D|--6-6-6-6-6-6-6-6-6-6-6-6-6-6-6-6-6----------------------------------------|
A|--6-6-6-6-6-6-6-6-6-6-6-6-6-6-6-6-6----------------------------------------|
E|--4-4-4-4-4-4-4-4-4-4-4-4-4-4-4-4-4----etc---------------------------------|

chorus play it like it is:
e|---------------------------------------------------------------------------|
B|---------------------------------------------------------------------------|
G|----6-------8-------6---------------6-------8---------------8--------------|
D|----6---6---8---4---6---6---8---2---6---6---8---4---8---4---8--6-----------|
A|----4---6---6---4---4---6---8---3---4---6---6---4---8---4---6--6-----------|
E|--------4-------2-------4---6---3-------4-------2---6---2------4-----------|

then play:
 verse
 bridge
 chorus

the bit after chorus
e|---------------------------------------------------------------------------|
B|---------------------------------------------------------------------------|
G|-------------6-6-----------------------------------------------------------|
D|--8--8--4-4--6-6--4-4------------------------------------------------------|
A|--8--8--4-4--4-4--4-4------------------------------------------------------|
E|--6--6--2-2-------2-2------------------------------------------------------|
                          x4
then
chorusx2



Important: The song above is NOT stored on the Chordie server. The original song is hosted at www.xguitar.com. Chordie works as a search engine and provides on-the-fly formatting. Chordie does not index songs against artists/composers will. To remove this song please click here.

This song is displayed as text-only. Transposing and tuning is only available for chordpro-songs.

Login - add to songbook

Rating click stars to rate

Layout
Accuracy

SHARE PAGE  




You need to log in to post comments