Guitar Tabs, Chords and Lyrics


Magnetic North    Less Than Jake



-------------------------------------------------------------------------------
                          MAGNETIC NORTH - Less Than Jake
-------------------------------------------------------------------------------

By: wizo720@aol.com

Intro:
e|-------3-------3--------1-------0-1-3----1-3-----------------------------|
B|--1-----------------1------1-----------1---------------------------------|
G|-------------------------------------------------------------------------|
D|-------------------------------------------------------------------------|
A|-------------------------------------------------------------------------|
E|-------------------------------------------------------------------------|
	
Chorus:
e|-------------------------------------------------------------------------|
B|-------------------------------------------------------------------------|
G|--5-5-5-5-5-5-5-5-------------3-3-3-3------------------------------------|
D|--5-5-5-5-5-5-5-5---3-3-3-3---3-3-3-3------------------------------------|
A|--3-3-3-3-3-3-3-3---3-3-3-3---1-1-1-1------------------------------------|
E|--------------------1-1-1-1----------------------------------------------|
      	
Verse:
e|-------------------------------------------------------------------------|
B|-------------------------------------------------------------------------|
G|-------------------------------------------------------------------------|
D|--5----------------------------------------------------------------------|
A|--5----------------------------------------------------------------------|
E|--3----------------------------------------------------------------------|

e|-------------------------------------------------------------------------|
B|-------------------------------------------------------------------------|
G|--5-5-----5-5-----5-5-----5-5-3---5-5-----5-5---------------3-3-3-3------|
D|--5-5-----5-5-----5-5-----5-5-3-3-5-5-----5-5-----3-3-3-3---3-3-3-3------|
A|--3-3-----3-3-----3-3-----3-3-3-3-3-3-----3-3-----3-3-3-3---1-1-1-1------|
E|--------------------------------1-----------------1-1-1-1----------------|

Riff A:
e|-------------------------------------------------------------------------|
B|-------------------------------------------------------------------------|
G|--3-3-x-x-x-x-------------3-3-x-x-x--------------------------------------|
D|--3-3-x-x-x-x-3-3-x-x-x-x-3-3-x-x-x-3-3-x-x-x-x--------------------------|
A|--1-1-x-x-x-x-3-3-x-x-x-x-1-1-x-x-x-3-3-x-x-x-x--------------------------|
E|--------------1-1-x-x-x-x-----------1-1-x-x-x-x--------------------------|
Riff B:
e|-------------------------------------------------------------------------|
B|-------------------------------------------------------------------------|
G|--------------5-5-----5-----3-3------------5-5----5-----3-3--------------|
D|-3---8--------5-5-----5-----3-3----3-3-----5-5----5-----3-3-----3-3------|
A|-3---8--------3-3-----3-----1-1----3-3-----3-3----3-----1-1-----3-3------|
E|-1---6-----------------------------1-1--------------------------1-1------|

e|-------------------------------------------------------------------------|
B|-------------------------------------------------------------------------|
G|--5-5-5-5-5-5-5-5--3-3-3-3-------------5-5-5-5-5-5-5-5--3-3-3-3----------|
D|--5-5-5-5-5-5-5-5--3-3-3-3--3-3-3-3----5-5-5-5-5-5-5-5--3-3-3-3--3-3-3-3-|
A|--3-3-3-3-3-3-3-3--1-1-1-1--3-3-3-3----3-3-3-3-3-3-3-3--1-1-1-1--3-3-3-3-|
E|----------------------------1-1-1-1------------------------------1-1-1-1-|

Ending:                                                            Last note:
e|------------------------------------------|------------------------------|
B|------------------------------------------|------------------------------|
G|--5-5----5-5----5-5-3-3----3--------------|---5-5------------------------|
D|--5-5----5-5----5-5-3-3----3----3-3-3---- |---5-5------------------------|
A|--3-3----3-3----3-3-1-1----1----3-3-3---- |---3-3------------------------|
E|--------------------------------1-1-1-----|------------------------------|


Song Order:

Intro 4x
Chorus 4x
Verse
Chorus 4x
Riff A
Chorus 2x
Verse
Chorus 4x
Riff B
Chorus 4x
Ending 4x



Important: The song above is NOT stored on the Chordie server. The original song is hosted at www.xguitar.com. Chordie works as a search engine and provides on-the-fly formatting. Chordie does not index songs against artists'/composers' will. To remove this song please click here.

This song is displayed as text-only. Transposing and tuning is only available for chordpro-songs.

Login - add to songbook

Rating click stars to rate

Layout
Accuracy

SHARE PAGE  




You need to log in to post comments