Guitar Tabs, Chords and Lyrics


Al's War    Less Than Jake



-------------------------------------------------------------------------------
                            AL'S WAR - Less Than Jake
-------------------------------------------------------------------------------

Tabbed By:  Jonathan Maitipe (unsungzero@iJonathan.co.uk)
Website:    http://www.iJonathan.co.uk

Intro (Pt1) x2				Intro (Pt2) x1	          Intro (Pt3) x1
----------------------------------------|-------------------------|-------------
----------------------------------------|-------------------------|-------------
----------------------------------------|-------------------------|-------------
--4-4-4----8-8-8-----8-8-9----4-4-6-----|-4-4-4-4-4-4-4-4-4-4-4-4-|--6-8--------
--4-4-4----6-6-6-----8-8-9----4-4-4-----|-4-4-4-4-4-4-4-4-4-4-4-4-|--4-6-9------
--2-2-2--------------6-6-7----2-2-------|-2-2-2-2-2-2-2-2-2-2-2-2-|------7------

Verse x4						 1st, 2nd and 3rd times
---------------------------------------------------------|----------------------
---------------------------------------------------------|----------------------
---------------------------------------------------------|----------------------
--4-4-4-4-4-4-4-4----8-8-8-8-8-8-8-8----8-8-8-9-9-9-9-9--|--4-4-4-6-6-6-6-6-----
--4-4-4-4-4-4-4-4----6-6-6-6-6-6-6-6----8-8-8-9-9-9-9-9--|--4-4-4-4-4-4-4-4-----
--2-2-2-2-2-2-2-2-----------------------6-6-6-7-7-7-7-7--|--2-2-2---------------

							 4th time
---------------------------------------------------------|----------------------
---------------------------------------------------------|----------------------
---------------------------------------------------------|----------------------
---------------------------------------------------------|--9-9-9-9---11--------
---------------------------------------------------------|--9-9-9-9----9--------
---------------------------------------------------------|--7-7-7-7----9--------

Chrous(1) x4	    1st, 2nd and 3rd times		 4th time
--------------------|------------------------------------|----------------------
--------------------|------------------------------------|----------------------
--------------------|-10-11-11-11-10-11-11-11-10---------|----------------------
-11-11-11--9-9-9-9--|-10-11-11-11-10-11-11-11-10---------|--8-8-8----8-8-9------
-11-11-11--9-9-9-9--|--8--9--9--9--8--9--9--9--8---------|--6-6-6----8-8-9------
--9-9-9-9--7-7-7-7--|------------------------------------|-----------6-6-7------

Post-Chorus(1) x1
--------------------------------------------------------------------------------
--------------------------------------------------------------------------------
--------------------------------------------------------------------------------
--4-4-4-4-4-4-4-4-4-4-4-4----8-8-9----------------------------------------------
--4-4-4-4-4-4-4-4-4-4-4-4----8-8-9----------------------------------------------
--2-2-2-2-2-2-2-2-2-2-2-2----6-6-7----------------------------------------------

Repeat Verse
Repeat Chorus

Chrous(2) x4	    1st, 2nd and 3rd times		 4th time
--------------------|------------------------------------|----------------------
--------------------|------------------------------------|----------------------
--------------------|-10-11-11-11-10-11-11-11-10---------|----------------------
-11-11-11--9-9-9-9--|-10-11-11-11-10-11-11-11-10---------|--8-8-8----8-8-11-----
-11-11-11--9-9-9-9--|--8--9--9--9--8--9--9--9--8---------|--6-6-6----8-8-11-----
--9-9-9-9--7-7-7-7--|------------------------------------|-----------6-6--9-----

Post-Chrous x2				  1st time	   2nd time
------------------------------------------|----------------|--------------------
------------------------------------------|----------------|--------------------
--------------10-10-9-9-9-9---------------|-10-10-10-9-9-9-|--------------------
--9-9-9-9-9-9-10-10-9-9-9-9---9-9-9-9-9-9-|-10-10-10-9-9-9-|-9-9-9-9-11-11------
--9-9-9-9-9-9--8--8-7-7-7-7---9-9-9-9-9-9-|--8--8--8-7-7-7-|-9-9-9-9-11-11------
--7-7-7-7-7-7-----------------7-7-7-7-7-7-|----------------|-7-7-7-7--9--9------

Coda (Pt1) x2				
--------------------------------------------------------------------------------
--------------------------------------------------------------------------------
--------------------------------------------------------------------------------
--4-4-4----8-8-8-----8-8-9----4-4-6---------------------------------------------
--4-4-4----6-6-6-----8-8-9----4-4-4---------------------------------------------
--2-2-2--------------6-6-7----2-2-----------------------------------------------

Coda (Pt2)						
--------------------------------------------------------------------------------
--------------------------------------------------------------------------------
--------------------------------------------------------------------------------
--4-4-4-4-4-4-4-4----8-8-8-8-8-8-8-8----8-8-8-9-9-9-9-9----9-9-9-9---11---------
--4-4-4-4-4-4-4-4----6-6-6-6-6-6-6-6----8-8-8-9-9-9-9-9----9-9-9-9----9---------
--2-2-2-2-2-2-2-2-----------------------6-6-6-7-7-7-7-7----7-7-7-7----9---------

Coda (Pt3) x8	     1st, .... 7th times		 8th time
--------------------|------------------------------------|----------------------
--------------------|------------------------------------|----------------------
--------------------|-10-11-11-11-10-11-11-11-10---------|----------------------
-11-11-11--9-9-9-9--|-10-11-11-11-10-11-11-11-10---------|--8-8-8----6-8--------
-11-11-11--9-9-9-9--|--8--9--9--9--8--9--9--9--8---------|--6-6-6----4-6-7------
--9-9-9-9--7-7-7-7--|------------------------------------|---------------9------

This is my first tab, so feel free to send me any corrections, you can find me
on MSN as the ID at the top of the page - Jon



Important: The song above is NOT stored on the Chordie server. The original song is hosted at www.xguitar.com. Chordie works as a search engine and provides on-the-fly formatting. Chordie does not index songs against artists'/composers' will. To remove this song please click here.

This song is displayed as text-only. Transposing and tuning is only available for chordpro-songs.

Login - add to songbook

Rating click stars to rate

Layout
Accuracy

SHARE PAGE  




You need to log in to post comments