Chordie logo

Richard Allen George...No, It's Just Cheez    Less Than Jake



-------------------------------------------------------------------------------
            RICHARD ALLEN GEORGE, NO, JUST CHEEZ - Less Than Jake
-------------------------------------------------------------------------------

By: Darren Northfield: acidrign52@hotmail.com

INTRO x1
-------------------------------
-----------------------------7-
--7--------------------------7-
--7--------------------------7-
--7--------------------------5-
--5----------------------------


CHORUS x2
-------------------------------
----------------------7--7-7-7-
-7-7-7-7--7-7-7-4-4-4-7--7-7-7-
-7-7-7-7--7-7-7-4-4-4-7--7-7-7-
-7-7-7-7--7-7-7-4-4-4-5--5-5-5-
-5-5-5-5--5-5-5-2-2-2----------


VERSE x8
--5-5-X-5-X-5-X-X-7-7-X-X-5-5-
--5-5-X-5-X-5-X-X-7-7-X-X-7-7-
--7-7-X-7-X-7-X-X-9-9-X-X-7-7-
--7-7-X-7-X-7-X-X-9-9-X-X-7-7-
--7-7-X-7-X-7-X-X-9-9-X-X-5-5-
--5-5-X-5-X-5-X-X-7-7-X-X-----


CHORUS
CHORUS
VERSE
CHORUS
CHORUS



Important: The song above is NOT stored on the Chordie server. The original song is hosted at www.xguitar.com. Chordie works as a search engine and provides on-the-fly formatting. Chordie does not index songs against artists/composers will. To remove this song please click here.

This song is displayed as text-only. Transposing and tuning is only available for chordpro-songs.

Login - add to songbook

Rating click stars to rate

Layout
Accuracy

SHARE PAGE  

You need to log in to post comments