Guitar Tabs, Chords and Lyrics


Ask the Magic 8 Ball   Less Than Jake

-------------------------------------------------------------------------------



-------------------------------------------------------------------------------

[A]WHAT THE ***...THE *** HAVE I BECOME
[G]I BECOME THE PRODUCT OF THE SUN
[D]CAUGHT IN THIS SEMI CIRCLE
[E]TO[D] BECOME THE STUPIDEST MAN IN THE WORLD
VERSE:
[A]  [G]  [D]                                                                                  
-5-5-5-5----5-5-5---5-5--
-5-5-5-5----8-8-8---7-7--
-6-6-6-6----7-7-7---7-7--
-7-7-7-7----5-5-5---5-5--
-7-7-7-7----5-5-5---5-5--
-5-5-5-5----5-5-5---5-5--

CHUCK ANOTHER ONE UP TO EXPIERENCE....

BRIDGE: VERY FAST CLEAN SKA
-5-5-5-5----7-7----5-5------
-5-5-5-5----8-8----5-5------
-6-6-6-6----7-7----7-7------
-7-7-7-7--------------------
-7-7-7-7--------------------
-5-5-5-5--------------------

DRUNK AND SITTING.....AND THINKING

INTERLUDE:W/HORN SECTION
-5-5-5---5-5-5---7-7-7----9--9----10-10--9--9-7-7----7---5-
-5-5-5---7-7-7---9-9-9---10-10----10-10-10-10-9-9----9---7-
-6-6-6---7-7-7---9-9-9----9--9-----9--9-----9-9---9-99---7-
-7-7-7---5-5-5---7-7-7-------------------------------------
-7-7-7---5-5-5---7-7-7-------------------------------------
-5-5-5---5-5-5---7-7-7-------------------------------------


ENDING:W/DISTORTION
POWER CHORDS
[A]A [G]D [D]G [E]A [D](LAST NOTE)

=============================================================================

Important: The song above is NOT stored on the Chordie server. The original song is hosted at www.xguitar.com. Chordie works as a search engine and provides on-the-fly formatting. Chordie does not index songs against artists'/composers' will. To remove this song please click here.

Text color:
Chord color:
Chord grids: 
Font size:    
Page size: 

A D E G
variations - click chord images

Login - add to songbook

Transpose chords

Tuning

Rating click stars to rate

Layout
Accuracy

SHARE PAGE  




You need to log in to post comments