Guitar Tabs, Chords and Lyrics


Automatic    Less Than Jake



-----------------------------------------------------------------------------
                        Automatic- less than jake
-----------------------------------------------------------------------------

By:jordan spak-    jspak@aol.com

eI---------------------------------------------------------------------|
B|--------------------------------------------------------------------|
G|--7-------4-------------7----------------------------------------------|
D|--7---5--4---5---7----7---5---4--5--7----------------------------------------|
A|--5---5--2---5---7----5---5---4--5--7----------------------------------------|
E|-------3-------3--5---------3---2--3--5------------------------------------|

e|--5----3----5-----3------5-----5------------------------------------------|
B|--7----3----5-----3------7----5-------------------------------------------|
G|--7----4----6-----4------7----6-------------------------------------------|
D|--7----5----7-----5------7-----7------------------------------------------|
A|--5----5----7-----5------5-----7------------------------------------------|
E|--------3----5-----3------------5---------------------------------------|

e|--------------------------------------------------------------------|
B|--------------------------------------------------------------------|
G|-7-----4--------------7--------------------7---------------------7-------|
D|-7--5--4---5--7-----7---5--4--5--7----7---5---7--5--7----7---5--4--5--7-----------------|
A|-5--5--2---5--7-----5---5--4--5--7----5---5---7--5--7----5---5--4--5--7-----------------|
E|-----3------3---5---------3--2--3--5---------3---5--3--5---------3--2--3--5--------|

e|--7---5--4---7---5--4----5--4-----------------------------------------------|
B|-7---5---5--7----5--5----5--5-----------------------------------------------|
G|-8---6---6--8----6--6----6---6------9----------------------------------------|
D|--9--7---6---9---7--6----7----6-----9----------------------------------------|
A|-9---7---4---9---7---4---7-----4-----7---------------------------------------|
E|-7---5--------7--5--------5----------------------------------------------|

e|--------------------------------------------------------------------|
B|--------------------------------------------------------------------|
G|-7----------------9---6--------9----------------99------------------------|
D|-7-5-7--5-7----9-7-6-7-9--9--7--6-7-9---99-------------------------------------------|
A|-5-5-7--5-7----7-7-4-7-9--9--7--6-7-9---77-------------------------------------------|
E|----3-5--3-5------5----5-7--7--5--4-5-7-----------------------------------------|

|========================================================================


Important: The song above is NOT stored on the Chordie server. The original song is hosted at www.xguitar.com. Chordie works as a search engine and provides on-the-fly formatting. Chordie does not index songs against artists'/composers' will. To remove this song please click here.

This song is displayed as text-only. Transposing and tuning is only available for chordpro-songs.

Login - add to songbook

Rating click stars to rate

Layout
Accuracy

SHARE PAGE  




You need to log in to post comments