Guitar Tabs, Chords and Lyrics


My Very Own Flag    Less Than Jake



-------------------------------------------------------------------------------
                       MY VERY OWN FLAG - Less Than Jake
-------------------------------------------------------------------------------

By: dookiebomb14@aol.com
listen to the song

INTRO:
e|---------------------------------------------------------------------------|
B|---------------------------------------------------------------------------|
G|-----7---6-----------------------------------------------------------------|
D|-----7---6---7-------9---7---5---------------------------------------------|
A|-----5---4---7-------9---7---5---------------------------------------------|
E|-------------5-------7---5---3---------------------------------------------|
                                      ...let guitar ring when verse starts

CHORUS:
e|---------------------------------------------------------------------------|
B|---------------------------------------------------------------------------|
G|----7----------------------------------------------------------------------|
D|----7------7------9------5-------------------------------------------------|
A|----5------7------9------5-------------------------------------------------|
E|-----------5------7------3-------------------------------------------------|
           ...wish i had my own, wish i had my own.......

PRE-CHORUS:
e|---------------------------------------------------------------------------|
B|---------------------------------------------------------------------------|
G|---------------------------------------------------------------------------|
D|----7--------9----5--------------------------------------------------------|
A|----7--------9----5--------------------------------------------------------|
E|----5--------7----3--------------------------------------------------------|
         ...as i walk away, i can hear you say........

THING AT END:  let ring each time you strike, for 2 measures
e|---------------------------------------------------------------------------|
B|---------------------------------------------------------------------------|
G|--------7------------------------------------------------------------------|
D|--------7-------7-------9-------5------------------------------------------|
A|--------5-------7-------9-------5------------------------------------------|
E|----------------5-------7-------3------------------------------------------|
             ...OHH OH OH.. OHH OH OH....

INTRO
VERSE
CHORUS
VERSE
PRE-CHORUS
CHORUS
VERSE
THING AT END
VERSE/OUTRO



Important: The song above is NOT stored on the Chordie server. The original song is hosted at www.xguitar.com. Chordie works as a search engine and provides on-the-fly formatting. Chordie does not index songs against artists'/composers' will. To remove this song please click here.

This song is displayed as text-only. Transposing and tuning is only available for chordpro-songs.

Login - add to songbook

Rating click stars to rate

Layout
Accuracy

SHARE PAGE  




You need to log in to post comments