Guitar Tabs, Chords and Lyrics


Take A Look Around   Limp Bizkit



Limp Bizkit - Take A Look Around (MI2)
Tune Down a half step + drop D

Intro Riff:(lots of finger vibrato/palm mute/delay effect)
e |---------------------------------------------------------------|
b |---------------------------------------------------------------|
g |---------------0-2p0-------------------------------------------|
d |--2--2--2--2-2--------2--2--2--2-2--0--1-----------------------|
a |---------------------------------------------------------------|
D |---------------------------------------------------------------|

Mission Impossible Theme Part: (with delay)
e |--15-12-----15-12-----15-12-----15-12--------------------------|
b |--------12--------11--------10--------13---13-13-13-13-12------|
g |---------------------------------------------------------------|
d |---------------------------------------------------------------|
a |---------------------------------------------------------------|
D |---------------------------------------------------------------|

Pre-Chorus:
e |---------------------------------------------------------------|
b |---------------------------------------------------------------|
g |---------------------------------------------------------------|
d |---------------------------------------------------------------|
a |---------------------------------------------------------------|
D |--0h2-0h2-0h2-0h2-5-7---0h2-0h2-0h2-0h2-0-1--------------------|

Chorus: (could also play this without the hammer-ons)
e |---------------------------------------------------------------|
b |---------------------------------------------------------------|
g |---------------------------------------------------------------|
d |--0h2-0h2-0h2-0h2-5-7---0h2-0h2-0h2-0h2-0-1--------------------|
a |--0h2-0h2-0h2-0h2-5-7---0h2-0h2-0h2-0h2-0-1--------------------|
D |--0h2-0h2-0h2-0h2-5-7---0h2-0h2-0h2-0h2-0-1--------------------|

tabbed by zipztabs.com


Important: The song above is NOT stored on the Chordie server. The original song is hosted at www.xguitar.com. Chordie works as a search engine and provides on-the-fly formatting. Chordie does not index songs against artists'/composers' will. To remove this song please click here.

This song is displayed as text-only. Transposing and tuning is only available for chordpro-songs.

Login - add to songbook

Rating click stars to rate

Layout
Accuracy

SHARE PAGE  




You need to log in to post comments