Guitar Tabs, Chords and Lyrics


Eat You Alive   Limp Bizkit



Band:    Limp Bizkit
Album:   Results May Vary
Single:  Eat You Alive
Length:  4:12
Tuning:  C# F# B E G# C#
Tabber:  Korotz

Please rate this tab!!

intro
--------------------------------------------------------------------
--------------------------------------------------------------------
--------------------------------------------------------------------
--------------------------------------------------------------------
--2-4-4-4-5-2-5--2-4-4-4-5-2-5--2-4-4-4-5-2-5--2-4-4-4-5------------
--0-2-2-2-3-0-3--0-2-2-2-3-0-3--0-2-2-2-3-0-3--0-2-2-2-3------------


chorus
heavy distortion
--------------------------------------------------------------------
--------------------------------------------------------------------
--------------------------------------------------------------------
----4-4-4-5---5----4-4-4-5---5----4-4-4-5---5----4-4-4-5------------
--2-4-4-4-5-2-5--2-4-4-4-5-2-5--2-4-4-4-5-2-5--2-4-4-4-5------------
--0-2-2-2-3-0-3--0-2-2-2-3-0-3--0-2-2-2-3-0-3--0-2-2-2-3------------


verse
pm- - - - - - -  - - - -        - - - - - - -  - - - -
---------------------------------------------------------------------
---------------------------------------------------------------------
---------------------------------------------------------------------
---------------------------------------------------------------------
--2-4-4-4-5-2-5--2-4-4-4--------2-4-4-4-5-2-4--2-4-4-4---------------
--0-2-2-2-3-0-2--0-2-2-2--------0-2-2-2-3-0-2--0-2-2-2---------------


pre chorus
         /b/              /b/              /b/               /b/
---------------------------------------------------------------------
---------------------------------------------------------------------
-1111111111^1111--1111111111^1111--1111111111^1111--1111111111^1111--
--x-x-x-x-x--x-x---x-x-x-x-x--x-x---x-x-x-x-x--x-x---x-x-x-x-x--x-x--
--9-9-9-9-9^-9-9---9-9-9-9-9^-9-9---9-9-9-9-9^-9-9---9-9-9-9-9^-9-9--
---------------------------------------------------------------------


chorus

verse

prechorus

chorus


chorus 2
----------------------------------------------------------------------
----------------------------------------------------------------------
--------------------111111--------------------------------------------
--7-7-7-7-7-7-9-9-9--x-x-x--------------------------------------------
--5-5-5-5-5-5-7-7-7--9-9-9---4-4-4-4-4-4-4-4-4-4-4-4------------------
-----------------------------2-2-2-2-2-2-2-2-2-2-2-2------------------

----------------------------------------------------------------------
----------------------------------------------------------------------
--------------------111111--------------------------------------------
--7-7-7-7-7-7-9-9-9--x-x-x--------------------------------------------
--5-5-5-5-5-5-7-7-7--9-9-9---4~~~~~~~---------------------------------
-----------------------------2~~~~~~~---------------------------------



bass interlude



interlude
clean w/light delay
---------------------------------------------------------------------
--------15------------15-----------15------------15------------------
-----14----14------14-----------14----14------14---------------------
--12-------------------------------------------------12-14-----------
---------------15-----------14------------15-------------------------
---------------------------------------------------------------------


interlude
phaser & distortion
---------------------------------------------------------------------
--------15----------------15--------------15----------------15-------
-----14----------------14--------------14----------------14----------
--12-------12-12h14-12--------12-14-12-------12-12h14-12-------12-14-
---------------------------------------------------------------------
---------------------------------------------------------------------


chorus 2


fill
--------------------------------------------------------------------
--------------------------------------------------------------------
--------------------------------------------------------------------
--------------------------------------------------------------------
--2-4-4-4-5-2-5--2-4-4-4-5-2-5--2-4-4-4-5-2-5--2-4-4-4-5------------
--0-2-2-2-3-0-3--0-2-2-2-3-0-3--0-2-2-2-3-0-3--0-2-2-2-3------------


main


end
-------------------------------------------------------------------
-------------------------------------------------------------------
-------------------------------------------------------------------
----4-4-4-5---5----4-4-4-5---5--4----------------------------------
--2-4-4-4-5-2-5--2-4-4-4-5-2-5--4----------------------------------


Important: The song above is NOT stored on the Chordie server. The original song is hosted at www.xguitar.com. Chordie works as a search engine and provides on-the-fly formatting. Chordie does not index songs against artists'/composers' will. To remove this song please click here.

This song is displayed as text-only. Transposing and tuning is only available for chordpro-songs.

Login - add to songbook

Rating click stars to rate

Layout
Accuracy

SHARE PAGE  




You need to log in to post comments