Chordie logo

Stalemate   Limp Bizkit



Artist: Limp Bizkit 
Song: Stalemate
Album: Three Dollar Bill Y'All 

Intro (All Tapping) 
E-----------------9--------------------------9----------------- 
B---------------------12--/--14-------------------------------- 
F#---------7-12p0---------------------7-12p0-------12--/--13--- 
F#---12-12----------12-----------12-12-----------12------------ 

Intro 2 (1:01) 
Gtr 1. 
E-------------------------------------------------------------- 
B-------------------------------------------------------------- 
F#------------------------------------------------------------- 
F#----0---0--------0---0--------0---0----0---0----------------- 
| 
Gtr 2. (1:06) 
E-------------------------------------------------------------- 
B-----7br7-------7br7----------7br7--7br7----7br7-------7b----- 
F#----7br7-------7br7----------7br7--7br7----7br7-------7b----- 
F#------------------------------------------------------------- 

Chorus (1:38) 
E-------------------------------------------------------------- 
B-------------------------------------------------------------- 
F#------12br12--------12br12----------12br12---12br12---------- 
F#---0---------0----0---------0---0----------0----------------- 

Bridge (2:53) 
E-------------------------------------------------------------- 
B-------------------------------------------------------------- 
F#------------------------------------------------------------- 
F#---0--0--0--x--0--0--0--0--0--x--0--0--0--0--0--0--x--0------ 

Bridge 2 (3:08) 
E----x-x--7-7-/-9-9-9--10-10-10-10--9-9-9-9--x-x-x-x----------- 
B----x-x-------------------------------------x-x-x-x----------- 
F#---x-x--5-5-/-7-7-7---8--8--8--8--7-7-7-7--x-x-x-x----------- 
F#------------------------------------------------------------- 

Interlude 
E----------7---7--/--9--------------7-/--10-------10-\-9------- 
B-------------------------------------------------------------- 
F#---------5---5--/--7--------------5-/---8--------8-\-7------- 
F#---0--0---------------0--0--0--0-----------0--0---------0---- 
P.M. -  -               - - - - - -          -  -         - 

E------9---------------14--14--15---15-\-14--------7-/-9------- 
B-------------------------------------------------------------- 
F#-----7---------------12--12--13---13-\-12--------5-/-7------- 
F#---0----0--0--0--0-------------------------0--0----------0--- 
P.M. -    - - - - - -                        -  -          - 

E----------------9-/10-10-----10--9--------9------14-14-14-15-- 
B-------------------------------------------------------------- 
F#---------------7-/-8--8------8--7--------7------12-12-12-13-- 
F#---0--0--0--0-----------0--0-------0--0----0-0--------------- 
P.M. - - - - - -          -  -       -  -    - - 

Midtro (4:13) 
E-------------------------------------------------------------- 
B---x-x-x-x-5-x-x-x-x-5-x-x-5-x-x-x-x-7-x-x-x-x-7b-x-x-7b------ 
F#------------------------------------------------------------- 
F#------------------------------------------------------------- 

Midtro (4:45) 
E-------------------------------------------------------------- 
B------------5-5------------5-----5-5-----7-7-7-7-----7-7-7---- 

F#---0-0-0-0------0-0-0-0-0---0-0-----0-0---------0-0-------0-- 
F#------------------------------------------------------------- 
P.M. - - - - - - - - - - - - - - - - - - - - - - - - - - - - - 


Important: The song above is NOT stored on the Chordie server. The original song is hosted at www.xguitar.com. Chordie works as a search engine and provides on-the-fly formatting. Chordie does not index songs against artists/composers will. To remove this song please click here.

This song is displayed as text-only. Transposing and tuning is only available for chordpro-songs.

Login - add to songbook

Rating click stars to rate

Layout
Accuracy

SHARE PAGE  

You need to log in to post comments