Chordie logo

Papercut   Linkin Park



Title:Papercut
Tunning:Dropped D one half step down
C# G# C# F# A# D#

Main Riff:
x|-10----12----13----12----10----12----13----12---------|x
x|----10----10----10----10----10----10----10----10------|x
x|------------------------------------------------------|x
x|------------------------------------------------------|x
x|------------------------------------------------------|x
x|------------------------------------------------------|x

Intro:
Play 4 times
x|----------------------------------------|x
x|----------------------------------------|x
x|---------10---9---5---------------------|x
x|-0-0-----8----7---5---------------------|x
x|-0-0-----8----7---3---------------------|x
x|-0-0------------------------------------|x

Verse
x|-------------------------|x
x|-------------------------|x
x|-------------------------|x
x|-1-1-3-0-0-0--8-88-8-7-7-|x  

Important: The song above is NOT stored on the Chordie server. The original song is hosted at www.xguitar.com. Chordie works as a search engine and provides on-the-fly formatting. Chordie does not index songs against artists/composers will. To remove this song please click here.

This song is displayed as text-only. Transposing and tuning is only available for chordpro-songs.

Login - add to songbook

Rating click stars to rate

Layout
Accuracy

SHARE PAGE  

You need to log in to post comments