Guitar Tabs, Chords and Lyrics


Quicksand   Lit





"quicksand"___________________________(b)bend_____________________________________________________ intro:_____________________________verses:__________________________
--------:::::---------------------------------------::--------------------------------------
--17b--:::::---------------------------------------::--------------------------------------
--16b--:::::---------------------------------------::--------------------------------------
--------:::::--6-6-6-6--4-4-4-4--6-6-6--4-4-4--::--6-6-6-6-6-6-6--4-4-4--4-4-4-----
--------:::::--6-6-6-6--4-4-4-4--6-6-6--4-4-4--::--6-6-6-6-6-6-6--4-4-4--4-4-4-----
--------:::::--4-4-4-4--2-2-2-2--4-4-4--2-2-2--::--4-4-4-4-4-4-4--2-2-2--2-2-2-----

________________________________________________________________________________________________ __________interlude at 1:40_____________________________________________

----------------------------------------------------------------------------------------------
----------------------------------------------------------------------------------------------
----------------------------------------------------------------------------------------------
--4-4-4--5-5-5--7-7-7--9-9-9--------------------------------------------------------------
--4-4-4--5-5-5--7-7-7--9-9-9--------------------------------------------------------------


Important: The song above is NOT stored on the Chordie server. The original song is hosted at www.xguitar.com. Chordie works as a search engine and provides on-the-fly formatting. Chordie does not index songs against artists'/composers' will. To remove this song please click here.

This song is displayed as text-only. Transposing and tuning is only available for chordpro-songs.

Login - add to songbook

Rating click stars to rate

Layout
Accuracy

Jango Player

SHARE PAGE  




You need to log in to post comments