Guitar Tabs, Chords and Lyrics


Zip-Lock   Lit



Lit - Ziplock
Tuning: Down a half step
Low to High: Eb Ab Db Gb Bb Eb

Intro/Chorus:
|-----------------------------------------------------------------------|
|-----------------------------------------------------------------------|
|---------------7--7-7-7--7--0---0-0-0---0-0-0---0-0-0---0-0------------|
|--5--5-5-5--5--7--7-7-7--7--5---5-5-5---5-5-5---5-5-5---5-5------------|
|--5--5-5-5--5--5--5-5-5--5--2/3-3-3-3\2-2-2-2/3-3-3-3\2-2-2------------|
|--3--3-3-3--3----------------------------------------------------------|

Riff II: (let the 17 ring throughout this)
|---x--x--x--x--x--x---19-----------------------------------------------|
|---20-20-20-20-20-20--x------------------------------------------------|
|---x--x--x--x--x--x----------------------------------------------------|
|---17-17-17-17-17-17---------------------------------------------------|
|---x--x--x--x--x--x----------------------------------------------------|
|-----------------------------------------------------------------------|

Verse I:
|-----------------------------------------------------------------------|
|-----------------------------------------------------------------------|
|------------x-x-5------------------------------------------------------|
|---5--------x-x-5------------------------------------------------------|
|---5--------x-x-3------------------------------------------------------|
|---3-------------------------------------------------------------------|

Pre-Chorus: (play the last chord until the end of the pre-chorus)
|-----------------------------------------------------------------------|
|-----------------------------------------------------------------------|
|--7-7--7-7-5-5--5-5----------------------------------------------------|
|--7-7--7-7-5-5--5-5-5-5--5-5-3-3--3-3----------------------------------|
|--5-5--5-5-3-3--3-3-5-5--5-5-3-3--3-3----------------------------------|
|--------------------3-3--3-3-1-1--1-1----------------------------------|

Chorus:  (with riff 1 on lead) (strumming not shown)
|-----------------------------------------------------------------------|
|-----------------------------------------------------------------------|
|------5-------5---2---5---2---5----------------------------------------|
|--5---5---5---5---2---5---2---5----------------------------------------|
|--5---3---5---3---0---3---0---3----------------------------------------|
|--3-------3------------------------------------------------------------|

tabbed by zipztabs.com
Enjoy!


Important: The song above is NOT stored on the Chordie server. The original song is hosted at www.xguitar.com. Chordie works as a search engine and provides on-the-fly formatting. Chordie does not index songs against artists/composers will. To remove this song please click here.

This song is displayed as text-only. Transposing and tuning is only available for chordpro-songs.

Login - add to songbook

Rating click stars to rate

Layout
Accuracy

Jango Player

SHARE PAGE  




You need to log in to post comments