Guitar Tabs, Chords and Lyrics


Addicted   Lit



Author/Artist: Lit
Title: Addicted
Album: Atomic
Transcribed by: Tim Herscovitch
Email: tim@nextgenhq.com

DADGBE Tuning (Drop D)

Intro (Muting)
--------------

e|-x--x--xxx--xx----------------------------------------------------------------|
B|-x--x--xxx--xx----------------------------------------------------------------|
G|-x--x--xxx--xx----------------------------------------------------------------|
D|------------------------------------------------------------------------------|
A|------------------------------------------------------------------------------|
D|------------------------------------------------------------------------------|


Main Riff/Verses
----------------

e|------------------------------------------------------------------------------|
B|------------------------------------------------------------------------------|
G|-4-4-------------6-6----------------------------------------------------------|
D|-4-4--x--6-6--x--6-6--x--5-5--4-----------------------------------------------|
A|-2-2--x--6-6--x--4-4--x--5-5--4-----------------------------------------------|
D|------x--6-6--x-------x--5-5--4-----------------------------------------------|


Prechorus
----------

This has a weird chord in it, the 022xxx, which sounds
pretty crappy with Drop D tuning, but that's the closest
chord I can get to what the song sounds like.  Try an open
D power chord if you don't like the way that sounds (000xxx).

e|------------------------------------------------------------------------------|
B|------------------------------------------------------------------------------|
G|------------------------------------------------------------------------------|
D|-2-2-2-2-2-2-2-2--4-4-4-4-4-4-4-4---2--5\2------------------------------------|
A|-2-2-2-2-2-2-2-2--4-4-4-4-4-4-4-4---2--5\2------------------------------------|
D|-2-2-2-2-2-2-2-2--4-4-4-4-4-4-4-4---0--5\2------------------------------------|


Chorus
-------

e|------------------------------------------------------------------------------|
B|------------------------------------------------------------------------------|
G|--/9-9-8-9-8----8-------------------------------------------------------------|
D|-------------11-----9-9---2-2--4-4-4-4-4-4-4-4--------------------------------|
A|--------------------9-9---2-2--4-4-4-4-4-4-4-4--------------------------------|
D|--------------------9-9---2-2--4-4-4-4-4-4-4-4--------------------------------|


Post-Chorus
------------

e|------------------------------------------------------------------------------|
B|------------------------------------------------------------------------------|
G|------------------------------------------------------------------------------|
D|-2----------------4-----------------------------------------------------------|
A|-2----------------4-----------------------------------------------------------|
D|-2-2-2-2-2-2-2-2--4---\\\\\\\\\\\\\\\\\\\\------------------------------------|


Solo (With wah)
---------------

This isn't perfect, but it's fairly close, and if you
use a lot of wah and noodle around near what I've transcribed
it sounds pretty perfect.

e|------------------------------------------------------------------------------
B|------------------------------------------------------------------------------
G|--\8h9--\8h9--\8h9--\8h9----------------------/13-11~-------------------------
D|--------------------------11-9----9--9h11p9------------13h14p13----13h14p13---
A|-------------------------------11-------------------------------14------------
D|------------------------------------------------------------------------------


e|------------------------------------------------------------------------------
B|------------------------------------------------------------------------------
G|-------------------------------8-------------8------/13-11--------------------
D|----13h14p13h14p13h14----\9-11---9-9---\9-11---9-9----------13h14p13----------
A|-14------------------------------------------------------------------14-------
D|------------------------------------------------------------------------------


e|------------------------------------------------------------------------------|
B|------------------------------------------------------------------------------|
G|------------------------------------------------------------------------------|
D|-13h14p13---------------------------------------------------------------------|
A|----------14------------------------------------------------------------------|
D|------------------------------------------------------------------------------|


Peace


Important: The song above is NOT stored on the Chordie server. The original song is hosted at www.xguitar.com. Chordie works as a search engine and provides on-the-fly formatting. Chordie does not index songs against artists/composers will. To remove this song please click here.

This song is displayed as text-only. Transposing and tuning is only available for chordpro-songs.

Login - add to songbook

Rating click stars to rate

Layout
Accuracy

Jango Player

SHARE PAGE  




You need to log in to post comments