Guitar Tabs, Chords and Lyrics


10:15 Saturday Night    Living End



-------------------------------------------------------------------------------
                      10:15 SATURDAY NIGHT - The Living End
-------------------------------------------------------------------------------

Tabbed by Brian Becker (bbecker@easy-pages.com)

Intro
 (harmonics) (i think this might be wrong)
  |--------------------|
  |--------------------|
  |------------5--5----|
  |-------5--5---------|
  |--7--7-----------7--|
  |--------------------|

 (mute the B note, let the e ring)
  e|--0------0-0-0-0-0-0--0-0-0-0-0-0--0-0-0-0-0-0--|
  B|----0-4--8-8-8-8-8-8--7-7-7-7-7-7--5-5-5-5-5-5--|
  G|------------------------------------------------|

  e|--0-0-0-0--0-0-0-0-0-0--0-0-0-0-0-0--|
  B|--5-5-7-7--8-8-8-8-8-8--7-7-7-7-7-7--|
  G|-------------------------------------|

 (slowly release mute)
  e|--0-0-0-0-0-0-0-0--|
  B|--5-5-5-5-5-5-5-5--|
  G|-------------------|

 Then play
  B Am (strum full Am) (4x)

Verse 1
  G                F#
  Ten fifteen on a Saturday night
  G                        F#
  And the tap drips on the streetlight (?)
  G                      F#
  And I'm sitting in the kitchen sink
  G           F#        E
  And the tap drips...

Play Intro

Verse 2 (same chords)
  Waiting for the telephone to ring.
  Wondering where she's been.
  I'm crying for yesterday.
  And the tap drips...

Intro

Solo
  |------------------------------|
  |--9b10r9p7--9b10r9p7----------|
  |--9b10r9p7--9b10r9p7---7~--9--| Play
  |---------------------9-----9--|    3x
  |------------------------------|
  |------------------------------|

  |----------------7--7/--|
  |--6-7-7-7-7-7-7--------|
  |-----------------------|
  |-----------------------|
  |-----------------------|
  |-----------------------|

 (Whammy Bar Improv! Woo!)
  e|--15-15-15-15--14-14-14-14--|
  B|--15-15-15-15--14-14-14-14--|

Intro
Verse 1
Intro

Solo 2
  |------------------------------------|
  |------------------------------------|
  |------------------------------------|
  |------------------------------------|
  |----9-10-9-10/12--12-10-9-10-12/14--|
  |--0-0-0--0-0------0--0--0-0--0------|

  |-----------------------------------|
  |-----------------------------------|
  |-----------------------------------|
  |-----------------------------------|
  |--14~-9-10-9-7-5---7-9-10-9-10/12--|
  |--0---0-0--0-0-0---0-0-0--0-0------|

  |------------------------------------|
  |------------------------------------|
  |------------------------------------|
  |------------------------------------|
  |--12~-10-9-10-12/14--14/9-10-9-7-5--|
  |--0---0--0-0--0------0----0--0-0-0--|

 (harmonics)
  |---------------|
  |---------------|
  |------5---5----|
  |--7-5---5---5--|
  |---------------|
  |---------------|



Important: The song above is NOT stored on the Chordie server. The original song is hosted at www.xguitar.com. Chordie works as a search engine and provides on-the-fly formatting. Chordie does not index songs against artists'/composers' will. To remove this song please click here.

This song is displayed as text-only. Transposing and tuning is only available for chordpro-songs.

Login - add to songbook

Rating click stars to rate

Layout
Accuracy

SHARE PAGE  




You need to log in to post comments