Guitar Tabs, Chords and Lyrics


All Torn Down    Living End



ALL TORN DOWN


^= full bend
v= bend back down
s= slide
h= hammer on
p= pull off


Intro: x4, Palm muted first 2 times

e--------------------------------------------------------------------|
b----------5---------------5---------------5---------------4---------|
g------6-----6---------6-----6---------6-----6---------5-----5-------|
d----6---6-----6-----6---6-----6-----6---6-----6-----4---4-----4-----|
a--4-------------------------------------------------------------6---|
e----------------0-5-------------0-4-------------4-4-----------------|

Listen for timing, then play

e-------------------|
b-------------------|
g-------------------|
d--6-6-6-6-6-6-6-6--|
a--6-6-6-6-6-6-6-6--|
e--4-4-4-4-4-4-4-4--|

Pre Verse: Played twice

e--------------------------------------0--------0----0---------|
b-----------------9-9--7--5-5----------0--------4^5--5v4--2----|
g--6-6-4-6--6-6------------------2-2-2-2--2-2------------------|
d--6-6-4-6--6-6---6-6--4--2-2----2-2-2-2--2-2------------------|
a--4-4-4-4--4-4------------------0-0-0-0--0-0------------------|
e------------------------------0-------------------------------|

Verse: x2 All up strokes

e------4--4--4--4--4--4--4--4--5--5--5--5--5--5--5--5--|
b------5--5--5--5--5--5--5--5--5--5--5--5--5--5--5--5--|
g------6--6--6--6--6--6--6--6--6--6--6--6--6--6--6--6--|
d------6--6--6--6--6--6--6--6--7--7--7--7--7--7--7--7--|
a--2s4-------------------------------------------------|
e------------------------------------------------------|

Pre Chorus:

e-------0------------------4-4-4-4--|
b-------0------------------4-4-4-4--|
g-------0------------------5-5-5-5--|
d--2--2-2---2-2-2-2--6-6-6-6-6-6-6--|
a--2--2-2---2-2-2-2--6-6-6-6-6-6-6--|
e--0--0-0---0-0-0-0--4-4-4-4-4-4-4--|

Verse

Pre Chorus

Chorus:

e----------------------0-2-2s4s2-0----------------------------------|
b-------------------------------------------------------------------|
g--2-2-2-2-4-4-4-4-----1-2-2s4s2-1--2-2-2-2-4-4-4-4--9-9s8-9s6--6s4-|
d--2-2-2-2-4-4-4-4------------------2-2-2-2-4-4-4-4--9-9s8-8s6--6s4-|
a--0-0-0-0-2-2-2-2------------------0-0-0-0-2-2-2-2--7-7s6-6s4--4s2-|
e-------------------0--------------------------------0-0------------|

e-------------------4--|
b-------------------5--|
g--2-2-2-2-4-4-4-4--6--|
d--2-2-2-2-4-4-4-4--6--|
a--0-0-0-0-2-2-2-2--4--|
e----------------------|

Verse

Pre Chorus

Chorus

Bridge:

e-----------------------------------|
b-----------------------------------|
g--6-6-6-6-6-6-6-6-2-2-2-2-4-4-4-4--|
d--6-6-6-6-6-6-6-6-2-2-2-2-4-4-4-4--| x2
a--4-4-4-4-4-4-4-4-0-0-0-0-2-2-2-2--|
e-----------------------------------|
"You've got no reason"

Pre Chorus

Solo:

e---------------------------------------------------------------------|
b---------------------------------------------------------------------|
g----6-4-------------6-4-------------6-4------------------------------|
d--------6-7-6-4---------6-7-6-4---------6-7-6-4-7-6-4-7-6-4-7-6------|
a--4-------------7-4-------------7-0-----------------------------7-4--|
e---------------------------------------------------------------------|

e----------------------------------------------4-5-7-9--7--9--11--11^--11--9-----|
b----------------------------------4-5-7-4-5-7--------------------------------9--|
g--------4-----4-6p4---4h6---6p4h6-----------------------------------------------|
d--7-6-7-----6-------6-----------------------------------------------------------|
a--------------------------------------------------------------------------------|
e--------------------------------------------------------------------------------|

e--9-11-9h11p9-----------------------------------------------------|
b--9-----------9----------10-9----10-9----10-9----10-9----10-9-----|
g--9-------------9---------------------------------------------11--|
d--------------------9h11------11------11------11------11----------|
a------------------------------------------------------------------|
e------------------------------------------------------------------|

e--9-7--------------------------------------------------------------4--5--|
b------9-7-----7-5-----7^--5----------------------------------2--4--------|
g----------9-6-----6-4-------6-4-6--6-4-6----6-6-4-4-4s2-2-2--------------|
d-------------------------------------------------------------------------|
a------------------------------------------0------------------------------|
e-------------------------------------------------------------------------|

Verse

Pre Chorus

Chorus

Bridge: played x4. On 4th time play

e----------------------------------------------------|
b----------------------------------------------------|
g--6-6-6-6-6-6-6-6-2-2-2-2-4-4-4-4-------------------|  Pause
d--6-6-6-6-6-6-6-6-2-2-2-2-4-4-4-4-6-6-6-6-6-6-6-6-6-|
a--4-4-4-4-4-4-4-4-0-0-0-0-2-2-2-2-6-6-6-6-6-6-6-6-6-|
e----------------------------------4-4-4-4-4-4-4-4-4-|


e-------------------------------------------------------------------|
b-------------------------------------------------------------------|
g--4-4-4-4-4-4-4-4-4-4-4-4-4-4-2-2----------------------------------|  X2
d--4-4-4-4-4-4-4-4-4-4-4-4-4-4-2-2-5-5-5-5-5-5-5-5-5-5-5-5-5-5-5-5--|
a--2-2-2-2-2-2-2-2-2-2-2-2-2-2-0-0-5-5-5-5-5-5-5-5-5-5-5-5-5-5-5-5--|
e----------------------------------3-3-3-3-3-3-3-3-3-3-3-3-3-3-3-3--|

Intro: twice, second time slows down

Outro:

e--------------4--|
b--------------5--|
g--------6-----6--|
d-----6-----6--6--|
a--4-----------4--|
e-----------------|


Tabbed by Jason Zarpellon
jason_zarps@hotmail.com


Important: The song above is NOT stored on the Chordie server. The original song is hosted at www.xguitar.com. Chordie works as a search engine and provides on-the-fly formatting. Chordie does not index songs against artists'/composers' will. To remove this song please click here.

This song is displayed as text-only. Transposing and tuning is only available for chordpro-songs.

Login - add to songbook

Rating click stars to rate

Layout
Accuracy

SHARE PAGE  




You need to log in to post comments