I Want a Day

Living End

 F#
e---------------|
b---------------|
g---------------|
d--4--4--4-4-4--|
a--4--4--4-4-4--|
e--2--2--2-2-2--|


Verse:

 BDC#
e-----------------------------------------------|
b-----------------------------------------------|
g-4-4-4-4---4--4-4-4---7-7-----7----6-6---6---6-|
d-4---4---4-4--4-4-4---7---7-----7--6-------6-6-|(x2)
a-2---2-----2--2-2-2---5-----5------4---4-----4-|
e-----------------------------------------------|


 DC#
e-----------------|
b-----------------|
g-7-7-7-7-7-7-6-6-|
d-7-7-7-7-7-7-6-6-|(x3)
a-5-5-5-5-5-5-4-4-|
e-----------------|


 A
e--5----5------|
b--5----5------|
g--6----6------|
d--7----7-7-7--|
a--7----7-7-7--|
e--5----5-5-5--|


Chorus: *up strokes*

 BA
e-7-7-7-7-7-7-7-7--5-5-5-5-5-5-5-5--|
b-7-7-7-7-7-7-7-7--5-5-5-5-5-5-5-5--|
g-8-8-8-8-8-8-8-8--6-6-6-6-6-6-6-6--|
d-9-9-9-9-9-9-9-9--7-7-7-7-7-7-7-7--|
a-----------------------------------|
e-----------------------------------|


 BAF#
e-7-7-7-7-7-7-7-7--5-5-5-5--2---|
b-7-7-7-7-7-7-7-7--5-5-5-5--2---|
g-8-8-8-8-8-8-8-8--6-6-6-6--3---|
d-9-9-9-9-9-9-9-9--7-7-7-7--4---|
a---------------------------4---|
e---------------------------2---|


Verse

Chorus

Bridge:

 BAG
e--------------------3---3---3---3--|
b--------------------3---3---3---3--|
g--4-4-4-4-2-2-2-2-0-0-0-0-0-0-0-0--|
d--4-4-4-4-2-2-2-2-0-0-0-0-0-0-0-0--|
a--2-2-2-2-0-0-0-0-x-2-x-2-x-2-x-2--|
e------------------3-3-3-3-3-3-3-3--|


Pre Solo:

e-0---0-----------0---0-----------0---0---------|
b-0---0---0---0---0---0---0---0---0---0---0---0-|
g-1---3---4---6---1---3---4---6---1---3---4---6-|
d-2---4---5---7---2---4---5---7---2---4---5---7-|
a-2---4---5---7---2---4---5---7---2---4---5---7-|
e-0---------------0---------------0-------------|
e-------------------|
b---0---0---0---0---|
g---8---9--10--11---|
d---9--10--11--12---|
a---9--10--11--12---|
e-------------------|


Solo:
e-------------------------------------------------------|
b-------------7-----------------------------------------|
g---------------9-7-6----------------6h7----------------|
d-9-9-7-9-9-7---------9-7-7---7---9------7---9-9-7-9-9-7|
a---------------------------9---9-----------------------|
e-------------------------------------------------------|
e---------------------------------------|
b-7------------------7---7--------------|
g---9-7-6h7--------x---x----------------|
d-----------9-7-9-----------11^-9-------|
a---------------------------------11-11-|
e---------------------------------------|


Last Chorus:

 C#B
e---9--9--9--9--9--9--9--9-7-7-7-7-7-7-7-7-|
b---9--9--9--9--9--9--9--9-7-7-7-7-7-7-7-7-|
g--10-10-10-10-10-10-10-10-8-8-8-8-8-8-8-8-|
d--11-11-11-11-11-11-11-11-9-9-9-9-9-9-9-9-|
a------------------------------------------|
e------------------------------------------|


 C#BG
e--9--9--9--9--9--9--9--9--7-7-7-7--3----|
b--9--9--9--9--9--9--9--9--7-7-7-7--3----|
g-10-10-10-10-10-10-10-10--8-8-8-8--4----|
d-11-11-11-11-11-11-11-11--9-9-9-9--5----|
a-----------------------------------5----|
e-----------------------------------3----|


 C#
e-------------------------------------------------|
b-------------------------------------------------|
g-------------------------------------------------|
d-10-10-10-10-10-10-10-10-10-10-10-10-10-10-10-10-|
a-10-10-10-10-10-10-10-10-10-10-10-10-10-10-10-10-|
e--8--8--8--8--8--8--8--8--8--8--8--8--8--8--8--8-|


 B
e-----------------------------------|
b-----------------------------------|
g-----------------------------------|
d--9-9-9-9-9-9-9-9-9-9-9-9-9-9-9-9--|
a--9-9-9-9-9-9-9-9-9-9-9-9-9-9-9-9--|
e--7-7-7-7-7-7-7-7-7-7-7-7-7-7-7-7--|


 C#
e-------------------------------------------------|
b-------------------------------------------------|
g-------------------------------------------------|
d-10-10-10-10-10-10-10-10-10-10-10-10-10-10-10-10-|
a-10-10-10-10-10-10-10-10-10-10-10-10-10-10-10-10-|
e--8--8--8--8--8--8--8--8--8--8--8--8--8--8--8--8-|


 B
e-----------------|
b-----------------|
g-----------------|
d-9-9-9-9-9-9-9-9-|
a-9-9-9-9-9-9-9-9-|
e-7-7-7-7-7-7-7-7-|


Outro:

 GC
e--------------------|
b--------------------|
g-----------------5--|
d-5--5--5--5-5-5--5--|
a-5--5--5--5-5-5--3--|
e-3--3--3--3-3-3-----|



A B C C# D F# G
variations - click chord images
Transpose chords:
Tuning:
Cool service:
View: Size:
A  A  A
Rating:
Layout:
  • Currently 1.8/5 Stars.
  • 1
  • 2
  • 3
  • 4
  • 5
 
Accuracy:
  • Currently 2.8/5 Stars.
  • 1
  • 2
  • 3
  • 4
  • 5
 
click stars to rate
Chordie recommends:
Get acoustic guitar lessons and electric guitar lessons at JamPlay.com
Songbook:
Login to add this song to your songbook
Support the artist
Preview/buy this song
MSN Music
Why this non-profit ad?

 
login to add comments/video/corrections