Chordie logo

For Sure    Lostprophets



Artist:Lost Prophets
Song: For Sure
Tabbed by: Drummaster7000
Tune DRop D and then a step (CGCFAD)
E-mail me with questions/comments at price1207@hotmail.com
Intro/Verse: 
Little Phaser Action
D|-------------------------------------------------|
A|------10------------10-------------10---8--11-10-|
F|---10---10----10-------10------10----10--10------|
C|-8---8-----8-----------------0----0--------------|
G|-------------10----10-----10---------------------|
C|-------------------------------------------------|

Then:
same chord shapes only strum with slight distortion
D|--------------------|
A|---10----10----10---|
F|---10----10----10---|
C|----8-----X-----0---|
G|---------10---------|
C|--------------------|

Finally: Let ring..strum once and let ring out
Sounds like it uses phaser or some effects.
D|---8------5------8----5----|
A|---8------5------8----5----|
F|---10-----7-----10----7----|
C|---------------------------|
G|---------------------------|
C|---------------------------|

Chorus:
D|--------------------|
A|--------------------|
F|--------------------|
C|--8--10----0--------|
G|--8--10----0--------|
C|--8--10----0--------|

Then let ring out again
Some affects used
D|---8------5------8----5----|
A|---8------5------8----5----|
F|---10-----7-----10----7----|
C|---------------------------|
G|---------------------------|
C|---------------------------|

Heavy distortion and screaming
D|--------------------|
A|--------------------|
F|--------------------|
C|-3-3--3-3-----------|
G|-1-1--1-1-----------|
C|-0-0--0-0-----------|

Lead singer is like "yea yea yea"
D|--------------------|
A|--------------------|
F|--------------------|
C|--8--10----0--------|
G|--8--10----0--------|
C|--8--10----0--------|

Second guitar plays:
D|-----------------------------------|
A|-----------------------------------|
F|----------10---------10--------10--|
C|--10-12-10---10-12-10-----10-12----|
G|-----------------------------------|
C|-----------------------------------|

LYRICS:
if I can walk 1000 miles a day id try
to do it cos I don't know if u really say
I think I saw the sky tonight
pushing through it feels alright
and I just don't know who I want to be
and every time I see your face I laugh out loud
acting hot your fitting in with all the crowd
and if I could I'd stop the time
and ask you for a clever line
and just because I know you won't give it to me

its raining hard again here now
that'll never change

lets start a war
so who's to blame
when it ends it starts to rain down

at times I think that all I need is summer sun

burning in my eyes and breaking through the trees
at times I feel my place is empty
it looks as though I never met me
but my smile does only show one side of me
and I can show you a little slice of everyone
laughing in the dark I think your having fun
the sunlight in your face that time
washes away all the grime
makes me forget just how much I hate you tonight

its raining hard again here now
that'll never change
lets start a war
so who's to blame
when it ands it starts to rain down

yeah yeah yeah...

lets start a war
so who's to blame
when it starts to rain
starts to rain
starts to rain
starts to rain
starts to rain down now...

I SAW THESE GUYS LIVE LAST NIGHT...AND I MUST SAY IF YOU GET THE CHANCE..GO.  IT WAS AMAZING.


Important: The song above is NOT stored on the Chordie server. The original song is hosted at www.xguitar.com. Chordie works as a search engine and provides on-the-fly formatting. Chordie does not index songs against artists/composers will. To remove this song please click here.

This song is displayed as text-only. Transposing and tuning is only available for chordpro-songs.

Login - add to songbook

Rating click stars to rate

Layout
Accuracy

SHARE PAGE  



You need to log in to post comments