Guitar Tabs, Chords and Lyrics


Ode To Summer    Lostprophets



 Artist:lostprophets
 Title:Ode To Summer
 Tabbed by:Chaos Theory
 Date:21 June 2001
 tune the bottom three strings to C,G,C then the rest accordingly

 Drop The bottom string to D then tune the whole guitar down a step
 INTRO

 |--------------------------------------------------------------
 |----------------------------------------------------------------------
 |------------------------------------------------------------------------
 |-----------------------55-77----------------------------55--77---------
 |----77-55--77--88--77----------------77-55--77--88--77----------------
 |-77------------------------------55-------------------------------

 |----------------------------------------------------------------------
 |----------------------------------------------------------------------
 |----------------------------------------------------------------------
 |------------------------55--77----------------------------55--77-------
 |-----77-55--77--88--77----------------77-55--77--88--77----------------
 |-33--------------------------------00------------------------------------

 THEN
 Guitar 1:
 |------------------------------------------------------------
 |----------------------------------------------------------
 |-----------------------------------------------------------
 |77---77-----77--55---55-----55--33---33-----33--00---00---
 |77---77-----77--55---55-----55--33---33-----33--00---00---
 |77---77-----77--55---55-----55--33---33-----33--00---00---

 Guitar 2:
 |-------------------------------------------------------
 |-------------------------------------------------------
 |-------------------------------------------------------
 |-----------------------55--77--------------------------
 |---77-55--77--88--77---------------play four times-----
 |-------------------------------------------------------

 THEN
 Verse
 |-----------------------------------------------------------------------------------------------------------------------------------------
 |-----------------------------------------------------------------------------------------------------------------------------------------
 |-----------------------------------------------------------------------------------------------------------------------------------------
 |-----------------------------------------------------------------------------------------------------------------------------------------
 |-----------------------------------------------------------------------------------------------------------------------------------------
 |7------------5----------------3--------------0-----------------

 If iit ever came down to one day.....
 |----------------------------------------------------------------------------------------------------------------------------------------------------------
 |----------------------------------------------------------------------------------------------------------------------------------------------------------
 |----------------------------------------------------------------------------------------------------------------------------------------------------------
 |----------------------------------------------------------------------------------------------------------------------------------------------------------
 |8-8-8-8---8-8-8-8------10-10-10-10-----10-10-10-10-----12-12-12-12----12-12-12-12------15-15-15-15----15-15-15-15
 |8-8-8-8---8-8-8-8------10-10-10-10-----10-10-10-10-----12-12-12-12----12-12-12-12------15-15-15-15----15-15-15-15

 Heavy bit with scratching (I can't work out the pattern)
 |---------------------------------------------------------------------------------------------------------------------------------------------------------
 |---------------------------------------------------------------------------------------------------------------------------------------------------------
 |----------------------------------------------------------------------------------------------------------------------------------------------------------
 |0-12-0-12-0-12-0----------------------------------------------------------------------------------------------------------------------------------
 |0-12-0-12-0-12-0----------------------------------------------------------------------------------------------------------------------------------
 |0-12-0-12-0-12-0----------------------------------------------------------------------------------------------------------------------------------

 Then
 |---------------------------------------------------------------------------------------------------------------------------------------------------------
 |---------------------------------------------------------------------------------------------------------------------------------------------------------
 |12-12-12-12-----------------------------------------------------------------------------------------------------------------------------------------
 |12-12-12-12-----------------------------------------------------------------------------------------------------------------------------------------
 |12-12-12-12------------------------------------------------------------------------------------------------------------------------------------------


Important: The song above is NOT stored on the Chordie server. The original song is hosted at www.xguitar.com. Chordie works as a search engine and provides on-the-fly formatting. Chordie does not index songs against artists'/composers' will. To remove this song please click here.

This song is displayed as text-only. Transposing and tuning is only available for chordpro-songs.

Login - add to songbook

Rating click stars to rate

Layout
Accuracy

SHARE PAGE  




You need to log in to post comments