Tuesday's Gone

Lynyrd Skynyrd

 CGAmF
 Train roll on, many miles from my home
 CGAmaddF
 Riding my blues away       

 CGAmaddF
 Tuesday's gone with the wind  

...can't remember the words off hand.

I Could be wrong, but I remember it like this:

 AEF#mD
 Train roll on, many miles from my home
 AED
 I'm riding my blues away

 AGD
 Tuesday's gone with the wind

So it's A E F#m D
and later A E D
 AGD

chord formations(all basic forms):

A -02220
E 022100
 F#m244222
 D   --0232
G 320003

and here is the intro (as far as I can tell and remember).
The bridge is the same with little variations.

It has been years since I last played this (or as a matter of fact even
listened to it), so the timing might be a little off. And besides I've
never been good with notes and notation.

If anybody is interested I could see if I can remember the bridge.
The same applies to the solo, although I'm not sure if I know (or knew)
the solo.

You'll have to excuse my (propably) unorthodox tabbing.
This is my first posting.

e-------------------------------------------------------------------------
b-------------------------------------------------------------------------
g-4^6---^4^6^4-2-----4^---6^4^6^4-------4^6^4^6^4-------|2----------------
d---------------------------------2---------------4--------------------2h4
a----------------------------------------------------------5\\4/5---2h4----
e-------------------------------------------------------------------------

^ = bend | = pause / \\ = slide
h = hammer-on

e-----------------------------------------0-----------0-----------0-------
b-----5-----5.....|-------5-5-----5-----------3-----------3-----------3---
g-2h4-4^6...6^4-2---------4-4h6---4---------------------------------------
d-------------------2-----------------0-----------0-----------0-----------
a-------------------------------------------------------------------------
e-------------------------------------------------------------------------

.. = hold or let ring

e----0--------------------------------------------------------------------
b--------3---2h3h5p2------------------------------------------------------
g--------------------2----------------------------------------------------
d0------------------------------------------------------------------------
a-------------------------------------------------------------------------
e-------------------------------------------------------------------------

p = pull-off

The last 5 notes might be played by keyboards on the recording.

Also the 12 notes before it are played differently in the middle of
the song:

e-----0-----------2-----------3-----------5-------------------------------
b---------3-----------3-----------3-----------3---------------------------
g-------------------------------------------------------------------------
d-0-----------0-----------0-----------0-----------------------------------
a-------------------------------------------------------------------------
e-------------------------------------------------------------------------


Intro For Tuesday's Gone:

|--9-9-10-9-7-----9-7-9p7p6-------9-7-9-7--|
|----------------------------7--------------|
|------------------------------------------|
|------------------------------------------|
|------------------------------------------|
|------------------------------------------|
|-9-10-9-7-5--9-10----9-10----9-10----9-10-|
|------------------0-------0-------0-------|
|------------------------------------------|
|------------------------------------------|
|------------------------------------------|
|------------------------------------------|

E-mail me at punkrockguitaristandrewteal@yahoo.com


A Am C D E F F#m G
variations - click chord images
Transpose chords:
Tuning:
Cool service:
View: Size:
A  A  A
Rating:
Layout:
  • Currently 2.4/5 Stars.
  • 1
  • 2
  • 3
  • 4
  • 5
 
Accuracy:
  • Currently 3.7/5 Stars.
  • 1
  • 2
  • 3
  • 4
  • 5
 
click stars to rate
Chordie recommends:
Get acoustic guitar lessons and electric guitar lessons at JamPlay.com
Songbook:
Login to add this song to your songbook
Support the artist
Preview/buy this song
MSN Music
Why this non-profit ad?

 
login to add comments/video/corrections