Chordie logo


The Needle and the Spoon    Lynyrd Skynyrd



"Needle and the Spoon" by Lynyrd Skynyrd off of the album "Second Helping"
Tabbed by Douglas Isenberg

------------------------------------------------------------------------------
------------------------------------------------------------------------------
------------------------------------------------------------------------------
-0-0-0-0-----3-3-0------------------------------------------------------------
-0-0-0-0-3-3-3-3-0-0h3--------------------------------------------------------
---------3-3-------0h3--------------------------------------------------------
1.30 days and 30 ...
2.I've come home on an ...
3.while I'm waiting ...

1.I've been felling so ...
2.Got to get better ...
3.Southern Darkness ...

1.I've seen a lot of people ..
2.But then again lord I've ...
3.I hope you people ..

------------------------------------------------------------------------------
------------------------------------------------------------------------------
------------------------------------------------------------------------------
-0-0-0-0-----6/5-3-0----------------------------------------------------------
-0-0-0-0-3-3-6/5-3-0----------------------------------------------------------
---------3-3------------------------------------------------------------------
4.Tell me son why do you stand ...
4.Said, you better quit ...
4.You'll get your chance to ...

------------------------------------------------------------------------------
------------------------------------------------------------------------------
------------------------------------------------------------------------------
-----0--------------3---3---3-------3----3--------3p--0---0-------------------
-0h3-0--------------3---3---3-------3----3--3-----3p--0---0-------------------
-0h3----------------------------------------3---------------------------------
Cause the needle   And the ...


------------------------------------------------------------------------------
------------------------------------------------------------------------------
------------------------------------------------------------------------------
---------0-0-0-0-----3-3-0------0-0-0-0-----6/5-3-0---------------------------
--0h-3---0-0-0-0-3-3-3-3-0--0h3-0-0-0-0-3-3-6/5-3-0---------------------------
--0h-3-----------3-3--------0h3---------3-3-----------------------------------
Took me away


This shouldn't be to hard to figure out, but i'f there are any questions
about it email me at Carol.isenberg@mail.rowan.k12.nc.us
I'f anybody has the tab to "Freebird" could you PLEASE post it!


Important: The song above is NOT stored on the Chordie server. The original song is hosted at www.xguitar.com. Chordie works as a search engine and provides on-the-fly formatting. Chordie does not index songs against artists/composers will. To remove this song please click here.

This song is displayed as text-only. Transposing and tuning is only available for chordpro-songs.

Login - add to songbook

Rating click stars to rate

Layout
Accuracy

SHARE PAGE  




You need to log in to post comments