Comin' Home

Lynyrd Skynyrd

 DCDC
E----------------------------------------------------------
B------3---------------------3-----3---------------------3-
G----2---2p0---0-----0-----0-----2---2p0---0-----0-----0---
D--0---------0-----2---0h2-----0---------0-----2---0h2-----
A-----------------3---------------------------3------------
E----------------------------------------------------------


 D
Then Chorus

I wanna come home It's been so long...

 AmC
E--0-----------------------------0-------------------------
B--1-----------------------------1-------------------------
G--2-----------------------------0-------------------------
D--2-----------------------------2-------------------------
A--0-----------------------------3-------------------------
E----------------------------------------------------------


...away

 GD
E--3-----------------------------2-------------------------
B--3-----------------------------3-------------------------
G--0-----------------------------2-------------------------
D--0-----------------------------0-------------------------
A--2-------------------------------------------------------
E--3-------------------------------------------------------


Lead guitar in chorus

 AmCGD
E----------------------------------------------------------
B--/5~---------------/8~-7~-5r-3~--------------------------
G----------------------------------------------------------
D----------------------------------------------------------
A----------------------------------------------------------
E----------------------------------------------------------


 AmCGD
E-----------10b--------------------------------------------
B--/5~----------------8~-10-5r-3~--------------------------
G----------------------------------------------------------
D----------------------------------------------------------
A----------------------------------------------------------
E----------------------------------------------------------


Then second verse (main riff)

Then second chorus

Then

 DBbCD
E----------------------------------------------------------
B----------------------------------------------------------
G--7-7----3-3----5-5----7-7--------------------------------
D--7-7----3-3----5-5----7-7--------------------------------
A--5-5----1-1----3-3----5-5--------------------------------
E----------------------------------------------------------


 BbCDDBbCD
E----------------------------------------------------------
B--------------------5br3----5br3-----3---5b~--------------
G---/3--/5--/7---------------------------------------------
D----------------------------------------------------------
A----------------------------------------------------------
E----------------------------------------------------------
E----------------------------------------------------------
B---10-10-10-10-10-8-8-8-6------8-8-8-8-8-10---/12-10~-----
G---11-11-11-11-11-9-9-9-7---------------------------------
D----------------------------------------------------------
A----------------------------------------------------------
E----------------------------------------------------------


First solo

E----------------------------------------------------------
B--------5b--5b---rp3----5br3~-----------------------------
G---/7~----------------------------------------------------
D----------------------------------------------------------
A----------------------------------------------------------
E----------------------------------------------------------
E----------------------------------------------------------
B------------------7-10------------------------------------
G-----7---7---7-9b------9rp7---7-9bb-7---7-/7~-------------
D--/9---9---9----------------9---------9-------------------
A----------------------------------------------------------
E----------------------------------------------------------
E-----10-8-------------------------------------------------
B----------8br----8-6-7-8-6-8~-6---8-6---------------------
G--/7----------10----------------8-----7-5-----------------
D------------------------------------------7p5p3-5-3-------
A----------------------------------------------------5~----
E----------------------------------------------------------
E-----------------------------------------5----------------
B----------------------------6---6-7-8-8b---6---6-6--------
G-------------------5---5/7~---7--------------7-----7~-----
D-----3---3---3-5/7---7------------------------------------
A--/5---5---5----------------------------------------------
E----------------------------------------------------------
E--------------------------------14-17---------------------
B------15----15-----15----15-17b-------17r-15-----15-------
G--/16----16-----16----16----------------------16----------
D----------------------------------------------------------
A----------------------------------------------------------
E----------------------------------------------------------
E----------------------------------------------------------
B-17b-17H-17H------17b-17H-17H----17b-17H-17H--------------
G----------------------------------------------------------
D----------------------------------------------------------
A----------------------------------------------------------
E----------------------------------------------------------
E----------------------------------------------------------
B-17b-17H-17r-p15-17-15-17~--15----15h17-15-17~---15-17-15-
G-------------------------------16-------------------------
D----------------------------------------------------------
A----------------------------------------------------------
E----------------------------------------------------------
E----------------------------------------------------------
B-----15-17-15-15~-----------------------------------------
G--16------------------------------------------------------
D----------------------------------------------------------
A----------------------------------------------------------
E----------------------------------------------------------


Then Verse 3
Chorus

Outro

E----------10--------13-13-----13-13-----13-13-13b---------
B-------10----10-13b-------13b-------13b-------------------
G---/14----------------------------------------------------
D----------------------------------------------------------
A----------------------------------------------------------
E----------------------------------------------------------
E---10h13p10----10-----------------------------------------
B------------13--------------------------------------------
G------------------12b-12-10-12----------------------------
D-------------------------------12-------------------------
A----------------------------------------------------------
E----------------------------------------------------------
E------10-13--------------------------------------13-------
B--/10-------13-13b-13b-13-13b--13-15b-15br-13-15----15-15-
G----------------------------------------------------------
D----------------------------------------------------------
A----------------------------------------------------------
E----------------------------------------------------------
E----------------------17---------17br---------------------
B-------15-15---15-17b----17r-p15------17br-15----15-17----
G---/16------16--------------------------------16----------
D----------------------------------------------------------
A----------------------------------------------------------
E----------------------------------------------------------
E---17b-17r-17b-17r-17b-17r--------------------------------
B---------------------------17br-15~-----------------------
G----------------------------------------------------------
D----------------------------------------------------------
A----------------------------------------------------------
E----------------------------------------------------------
E----------17-16-15----15----------------------------------
B-------15----------18----18-15-14-13----------------------
G---/16-------------------------------14-13-12-10----------
D-------------------------------------------------12-10-12-
A----------------------------------------------------------
E----------------------------------------------------------
E----------------------------------------------------------
B----------------------------------------------------------
G----------------------------------------------------------
D---15/14-14/12-12/10-10/12~-------------------------------
A----------------------------------------------------------
E----------------------------------------------------------
E----------------------------------------------------------
B----------------------------------------------------------
G---12-12b-12brp10-12-12brp10-12-12brp10-12-12brp10--------
D----------------------------------------------------------
A----------------------------------------------------------
E----------------------------------------------------------
E----------------------------------------------------------
B----------------------------------------------------------
G---10h12p10----12b-12-10-12-------------------------------
D------------12--------------12~---------------------------
A----------------------------------------------------------
E----------------------------------------------------------
E----------10-------------------13-13p10-------------------
B-------10----10-13-10-13-13p10----------13-13p10----------
G---/14----------------------------------------------------
D----------------------------------------------------------
A----------------------------------------------------------
E----------------------------------------------------------
E----------------------------------------------------------
B----------------------------------------------------------
G---12br-10-10h12p10-10/9-9/10-10/12-9---------------------
D--------------------------------------12~-----------------
A----------------------------------------------------------
E----------------------------------------------------------
E----------------------------------------------------------
B----------------------------------------------------------
G-------17-19-17-19b-19b-19b-p17--19b-19b-19b-p17----------
D---/19----------------------------------------------------
A----------------------------------------------------------
E----------------------------------------------------------
E----------------------------------------------------------
B----------------------------------------------------------
G---19b-19b-19b-p17-19~------------------------------------
D----------------------------------------------------------
A----------------------------------------------------------
E----------------------------------------------------------
E---8/10--13/12--8--10--13--17-----------------------------
B----------------------------------------------------------
G---5/7---10/9---5--7---10--14-----------------------------
D----------------------------------------------------------
A----------------------------------------------------------
E----------------------------------------------------------
E---10/12--15-13--12/10------------------------------------
B----------------------------------------------------------
G---7-/9---12-10--9-/7-------------------------------------
D----------------------------------------------------------
A----------------------------------------------------------
E----------------------------------------------------------


That's it.


Am Bb C D G
variations - click chord images
Transpose chords:
Tuning:
Cool service:
View: Size:
A  A  A
Rating:
Layout:
  • Currently 2.5/5 Stars.
  • 1
  • 2
  • 3
  • 4
  • 5
 
Accuracy:
  • Currently 2.3/5 Stars.
  • 1
  • 2
  • 3
  • 4
  • 5
 
click stars to rate
Chordie recommends:
Learn how to play guitar at JamPlay.com
Songbook:
Login to add this song to your songbook
Support the artist
Preview/buy this song
MSN Music
Why this non-profit ad?

 
login to add comments/video/corrections