Guitar Tabs, Chords and Lyrics


Acid Bath Vampire    Macabre



Macabre - Acid Bath Vampire
Tabbed By: rat_toe
Email: rat_toe@nmrc.org

Tuning: Drop D (D A D G B E)

listen to the song for timing, its a bit tricky if u havent heard the song

E|-----------------------------||
D|-----------------------------||
G|-----------------------------||
D|(7)-(6)-(5)-(4)--------------||
A|(5)-(4)-(3)-(2)-(5)-(4)-(3)--||
D|----------------(5)-(4)-(3)--||
main riff



E|----------------------------------------------------------||
B|----------------------------------------------------------||
G|----------------------------------------------------------||
D|----------------------------------------------------------||
A|-0000-0-0-0-0--0000-0-0-0-0--0000-0-0-0-0--0000-0-0-0-0---||
D|-0000-0-0-0-0--0000-0-0-0-0--0000-0-0-0-0--0000-0-0-0-0---||
pm .... . . . .  .... . . . .  .... . . . .  .... . . . .
versr1




E|----------------------------------------------------------------||
B|----------------------------------------------------------------||
G|----------------------------------------------------------------||
D|----------------------------------------------------------------||
A|-2-3-5--2-3-5--2-3-55-2-3-5--2-3-0-3-0-55-3-2-3-0-0-------------||
D|--------------------------------------------------0-------------||
chorus

main riff 2x
verse1 2x
main riff 2x
verse1 2x
main riff 2x
verse1 2x
main riff 2x
chorus 2x
verse1 2x
main riff 2x
chorus 2x


Important: The song above is NOT stored on the Chordie server. The original song is hosted at www.xguitar.com. Chordie works as a search engine and provides on-the-fly formatting. Chordie does not index songs against artists'/composers' will. To remove this song please click here.

This song is displayed as text-only. Transposing and tuning is only available for chordpro-songs.

Login - add to songbook

Rating click stars to rate

Layout
Accuracy

SHARE PAGE  




You need to log in to post comments