Guitar Tabs, Chords and Lyrics


A Thousand Lies   Machine Head




MACHINE HEAD
A THOUSAND LIES
Burn My Eyes

Tabbed by Arnaud PECOSTE


|------------------------|----------------------|-------------------------|-------------------------------|
|------------------------|----------------------|-------------------------|-------------------------------|
|-------------8----------|-----------8----------|-------------8-----------|--------------8----------------|
|----------0--6----6-----|--------0--6----------|----------0--6----6------|---------0----6----------------|
|------0--------------8--|-----0----------------|------0---------------8--|-----0-----------x--x---3---1--|
|--0---------------------|--0-------------------|--0----------------------|--0--------------x--x---3---1--|


|----------------------------|----------------------------|----------------------------|-----------------------|
|----------------------------|----------------------------|----------------------------|-----------------------|
|----------------------------|----------------------------|----------------------------|-----------------------|
|----------------------------|----------------------------|----------------------------|-----------------------|
|----------------------------|----------------------------|----------------------------|--0--0--0--0----3---1--|
|--0--0--0--0--0--0--0--0-0--|--0--0--0--0--0--0--0--0-0--|--0--0--0--0--0--0--0--0-0--|--0--0--0--0----3---1--|


|------------------------|----------------------|-------------------------|-------------------------------|
|------------------------|----------------------|-------------------------|-------------------------------|
|-------------8----------|-----------8----------|-------------8-----------|--------------8----------------|
|----------0--6----6-----|--------0--6----------|----------0--6----6------|---------0----6----------------|
|------0--------------8--|-----0----------------|------0---------------8--|-----0-----------x--x---3---1--|
|--0---------------------|--0-------------------|--0----------------------|--0--------------x--x---3---1--|


|------------------------|---------------------------------|
|------------------------|---------------------------------|
|-------------8----------|-----------8--6--5--6---6--5--6--|
|----------0--6----6-----|--------0--6--6--5--6---6--5--6--|
|------0--------------8--|-----0---------------------------|
|--0---------------------|--0------------------------------|

|-------------------------|-----------------------------------------|
|-------------------------|-----------------------------------------|
|-------------8-----------|--------------8-8-8-8-8-8-8-8------------|
|----------0--6----6------|---------0----6-6-6-6-6-6-6-6---8--10-8--|
|------0---------------8--|-----0--------------------------6--8--6--|
|--0----------------------|--0--------------------------------------|


|----------------------------------|-------------------------------|
|----------------------------------|-------------------------------|
|----------------------------------|-------------------------------|
|----------------------------------|-------------------------------|
|--0-0--0--6/--0-0--0--0--0-0-0-0--|--0-0--0--6/--0-0--0--6-5-6-0--|
|--0-0--0--6/--0-0--0--0--0-0-0-0--|--0-0--0--6/--0-0--0--6-5-6-0--|

|----------------------------------|--------------------------------|
|----------------------------------|--------------------------------|
|----------------------------------|--------------------------------|
|----------------------------------|--------------------------------|
|--0-0--0--6/--0-0--0--0--0-0-0-0--|--0-0--0--6/--0-0--0---0--3--1--|
|--0-0--0--6/--0-0--0--0--0-0-0-0--|--0-0--0--6/--0-0--0---0--3--1--|


|-----------------------|
|-----------------------|
|-----------------------|
|-----------------------|
|--0-0-0-1-0-0-3-5-4-3--|
|--0-0-0-1-0-0-3-5-4-3--|


|----------------------|-----------------------|------------|--------------------|---------------------|
|----------------------|-----------------------|------------|--------------------|---------------------|
|----------------------|-----------------------|------------|--------------------|---------------------|
|----------------------|-----------------------|-----%------|--8-8-8-8--8-8-8-8--|--8-8-8-8--8-8-8-8---|
|--0--0---0--0--0---0--|--0--0---0--3--3/6--6--|------------|--6-6-6-6--6-6-6-6--|--6-6-6-6--6-6-6-6---|
|--0--0---0--0--0---0--|--0--0---0--3--3/6--6--|------------|--------------------|---------------------|

|--------------------|-------------------------|
|--------------------|-------------------------|
|--------------------|-------------------------|
|--5-5-5-5--5-5-5-5--|-------------------------|
|--3-3-3-3--3-3-3-3--|--3-----1----------------|


Important: The song above is NOT stored on the Chordie server. The original song is hosted at www.xguitar.com. Chordie works as a search engine and provides on-the-fly formatting. Chordie does not index songs against artists'/composers' will. To remove this song please click here.

This song is displayed as text-only. Transposing and tuning is only available for chordpro-songs.

Login - add to songbook

Rating click stars to rate

Layout
Accuracy

SHARE PAGE  




You need to log in to post comments