Chordie logo


Five   Machine Head



\"Five\" by Machine Head on The Burning Red
Drop-B Tuning

Intro and Pre-Chorus (Guitar 1)
C#-----------------------
G#-----------------------
E---7-7-7-7-7-7-7-7-7-7--
B---x-x-x-x-x-x-x-x-x-x--
F#--5-5-5-5-5-5-5-5-5-5--
B------------------------

Intro and Pre-Chorus (Guitar 2)
C#----------------------------------------------------------------------
G#----------------------------------------------------------------------
E-----------------------------------------------------------------------
B---3s7-7-7-7-7-7-7-7-7-7-7-7--5-5-5-5-5-5-5-5--7-7-7-7-7--8-8-8-8-8-8--
F#----------------------------------------------------------------------
B-----------------------------------------------------------------------

Chorus
C#---------------------------
G#---------------------------
E---7-------------5-8-8-5-7--
B---x-x-3-3-1--3--x-x-x-x-x--
F#--5-x-3-3-1--3--3s6-6s3-5--
B-----x-3-3-1--3-------------

Riff 1 (\"I don\'t need it, I don\'t want it...\")
C#-----------------------------------
G#------------------------------------
E-------------------------------------
B---0-0--3-1-1-1-1h3--0-0--3-1-1-1-1h3
F#--0-0--3-1-1-1-1h3--0-0--3-1-1-1-1h3
B---0-0--3-1-1-1-1h3--0-0--3-1-1-1-1h3

Interlude 1
C#---------------------------------------------------------------
G#---------------------------------------------------------------
E-----3-2-0--------------3-2-0----------------3-2-0--------------
B-----------3-2-0-2--------------3-2-0-3------------3-2-0-2-3h5--
F#---------------------------------------------------------------
B---0-----------------0-------------------0----------------------

Interlude 2
C#----------------------------------
G#----------------------------------
E-------0------0-------*7-*7-*7-*7--
B-----3------7---5------------------
F#--5------8-----6------------------
B-----------------------------------
*=Natural harmonic

Riff 2
C#------------------------------
G#------------------------------
E-------------------------------
B-------------------------------
F#--0-0-0--0-0-0--0-0-0--0-0-0--
B---0-0-0--0-0-0--0-0-0--0-0-0--
PM  - - -  - - -  - - -  - - - 



Important: The song above is NOT stored on the Chordie server. The original song is hosted at www.xguitar.com. Chordie works as a search engine and provides on-the-fly formatting. Chordie does not index songs against artists/composers will. To remove this song please click here.

This song is displayed as text-only. Transposing and tuning is only available for chordpro-songs.

Login - add to songbook

Rating click stars to rate

Layout
Accuracy

SHARE PAGE  




You need to log in to post comments