Guitar Tabs, Chords and Lyrics


Descend the Shades of Night   Machine Head



Descend the Shades of Night

Tuned down to B

Guitar 1 Acoustic :                                       

--5—5---5---5--     --5—5---5----5--- 5-             Repeat x
--6---6---6---6--     --5---5---5----5----5
--7---7---7---7--     --6---6---6----6----6
--7---7---7---7--     --5---5---5----5----5
--5---5---5---5-5      -7---7---7----7----7-5

Guitar 2 Acoustic : 

-------------------17—15—14—15-12-------------------17—15—14-19---14-     reapeat x2
--14-15-17-14------------------------------14-15-17-14---------------------------
-----------------------------------------------------------------------------------------
-----------------------------------------------------------------------------------------
-----------------------------------------------------------------------------------------
-----------------------------------------------------------------------------------------


Guitars 1 and 2 :

-------------------------------------------------------------------
-------------------------------------------------------------------
-------------------------------------------------------------------
-5-5-5-5-5-5-5-5-7-7-7-7-7-7-7-7-7-------------------------
-5-5-5-5-5-5-5-5-7-7-7-7-7-7-7-7-7-------------------------
-5-5-5-5-5-5-5-5-7-7-7-7-7-7-7-7-7--------------------------

Chorus  Guitar 1 :

----------------------------------------------------------------------------------------------------------------------------------------------------------------------------------------------------------------------------------------------------------------------------------------------------------------------------------------------------8-8-8-8-8-8-8-------0—0—0----8-8-8-8-8-8---0—0—0----8-8-8-8-8-8-----3-3-3-3-3-3-3-------
-8-8-8-8-8-8-8-------0---0---0----8-8-8-8-8-8---0---0---0----8-8-8-8-8-8-----3-3-3-3-3-3-3-------
-8-8-8-8-8-8-8-------0---0---0----8-8-8-8-8-8---0---0---0----8-8-8-8-8-8-----3-3-3-3-3-3-3-------

----------------------------------------------------------------------------------------------------------------------------------------------------------------------------------------------------------------------------------------------------------------------------------------------------------------------------------------------------5-5-5-5-5-5-5-5-5-5-5---7-7-7-7-7-7-7-7-7-7-7-7------------------------------------------------------5-5-5-5-5-5-5-5-5-5-5---7-7-7-7-7-7-7-7-7-7-7-7------------------------------------------------------5-5-5-5-5-5-5-5-5-5-5---7-7-7-7-7-7-7-7-7-7-7-7-----------------------------------------------------




Chorus Guitar 2 :

-8—8—8---8---8----0-----0---0—8---8—8—8—8----0---0—0---8---8----8---8—8---3---3---3
-11-11—11-11-11---3----3----3—11-11-11—11-11—3—3—3-11—11—11-11-11—6—6—6
-10-10---10-10-10---2----2----2---10-10-10---10-10---2---2---2-10---10---10-10-10---5---5---5
---------------------------------------------------------------------------------------------------------------------------------------------------------------------------------------------------------------------------------------------------------------------------------------------------------------------------------------------------

------------------------------------------------------------------------------------------------------------------8—8---8---8—8—8—8—8—8—8—8—10—10—10—10---10---10—10—10------------------7---7---7---7---7---7---7—7---7---7---7----9----9-----9-----9----9----9-----9-----9---------------------------------------------------------------------------------------------------------------------------------------------------------------------------------------------------------------------------------------------------
-----------------------------------------------------------------------------------------------------------------

Begining of solo Guitar 2 :

-12—13—15—13—12-------------15---------------------------------------------------18—17---18--
----------------------------13---15--------15—13-----------------13—8-------------------------15------
-------------------------------------------------------12---10—12---------10—9--------------------------
-----------------------------------------------------------------------------------------10-10-----------------



Important: The song above is NOT stored on the Chordie server. The original song is hosted at www.xguitar.com. Chordie works as a search engine and provides on-the-fly formatting. Chordie does not index songs against artists/composers will. To remove this song please click here.

This song is displayed as text-only. Transposing and tuning is only available for chordpro-songs.

Login - add to songbook

Rating click stars to rate

Layout
Accuracy

SHARE PAGE  




You need to log in to post comments