+++Intro (after first bit of singing)
+++
E----------------------
B----------------------
G----------------------
D-0-0--0-0--0-0-0-0-4-5 X2
A-0-0--0-0--0-0-0-0-4-5
D-0-0--0-0--0-0-0-0-4-5


++Verse
++
E--------------------------
B--------------------------
G--------------------------
D-0-0--0-0-0---0-0-0-0-4-5-
A-0-0--0-0-0---0-0-0-0-4-5-
D-0-0--0-0-0---0-0-0-0-4-5-


+++Chorus
+++
E------------------------------------------------------------------------
B------------------------------------------------------------------------
G------------------------------------------------------------------------
D-55555555-00000000-55555555-00000000-55555555-00000000-22222222-00000000
A-55555555-00000000-55555555-00000000-55555555-00000000-22222222-00000000
D-55555555-00000000-55555555-00000000-55555555-00000000-22222222-00000000


++SOLO
++
E-10---10---10---10---
B---------------------
G----7----7----7----7- X2
D---------------------
A---------------------
D---------------------


++++++++Ending Riff
++++++++
E------------------
B------------------
G------------------
D------------------

A-55555555-00000000
D-55555555-00000000

STUCTURE

tECHNO bIT
Intro Riff X4
Verse X8
Intro Riff X4
Verse X4
Chorus X2
Verse X 4
Drum Bit
Solo
Intro Riff X4
Verse X12
Chorus X2
Ending Riff X4
Verse X4


variations - click chord images
Transpose chords:
Tuning:
Cool service:
View: Size:
A  A  A
Rating:
Layout:
  • Currently 0/5 Stars.
  • 1
  • 2
  • 3
  • 4
  • 5
 
Accuracy:
  • Currently 3.3/5 Stars.
  • 1
  • 2
  • 3
  • 4
  • 5
 
click stars to rate
Chordie recommends:
Learn to play this song & others via video guitar lessons at JamPlay.com
Songbook:
Login to add this song to your songbook
Support the artist
Preview/buy this song
MSN Music
Why this non-profit ad?

 
login to add comments/video/corrections