Guitar Tabs, Chords and Lyrics


Astaroth    Mago De Oz



Intro

E----------------------------------------------------
A-2-(2-2)-2-3-3-2-(2-2)-2-0-2------------------------
D-4-(4-4)-4-5-5-4-(4-4)-4-0-4------------------------x2
G----------------------------------------------------
B----------------------------------------------------
E----------------------------------------------------
Todo lo que esta entre parentesis es con palm mute

Violin y flauta

E-------------------------------------------------------------
A-------------------------------------------------------------
D-------------------------------------------------------------
G-------------------------------------------------------------
B-12-12-13-12-------------------12-12-12-13-12-10-13-10-13-12-
E-------------11-10-11--13-11-10------------------------------

E-------------------------------------------------------
A-------------------------------------------------------
D------------------------------------------------------
G------------------------------------------------------
B-------------------------------18-18-18p19*18*16p18---
E-13-13-14-13--17-16-17-19-17-16--------------------17-
Riff 1
E------------------------------------------------------
A-2-2-2--2-2--2-2-2--2-2-3--2-2-2--2-2-(0)-2-(4)--------
D-4-4-4--4-4--4-4-4--4-4-5--2-2-2--2-4-(0)-4-(6)2da vez
De la noche de los tiempos...

E------------------------------------------------------
A-2-2-2-0-2-------2-6-5-7-8--6-5-----------------------
D-4-4-4-0-4-x3----4-8-7-9-10-8-7-----------------------
Y no pronuncias...El reflejo alimentado soy..

Se repite violin y otra vez tl Riff 1

E------------------------------------------------------
A-9--5-6------------------2-4--------------------------
D-11-7-8------------------4-6-Esto es todo el coro-----
Ven hacia mi...morar en ti...

E------------------------------------------------------
A------------------------------------------------------
D----11-----11-------------11-8--------11-8-5------8-(6)---
G--11--13-10--11-11p13-11-10----8-8p10-8------5-7-8----
B-11---------------------------------------------------
E------------------------------------------------------
La segunda vez se añade (6)

E------------------------------------------------------
A------------------------------------------------------
D-0---------0---------0----------0---------------------
G--0---------0---------0----------0-----------x2-------
B---0---------0---------0-----4-0--0-----3-0-----------
E----5-4-2-4---5-4-2-4---4p5-4------2p3-2--------------

E------------------------------------------------------
A------------------------------------------------------
D-0------0------0-------0-----------0-------0-------0---
G--0------0------0-------0-----------0-------0-------0--
B---0-0-0--0-0-0--0-0-----0-----------0-0-----0-0-----0-0-0-12-12
E----0-0----0-0----2-2-0---0-7*0-2*0---2-2-0---2-2-0---0-0--12-12

E-----------------------------------------------------------
A-----------------------------------------------------------
D-0------0------0-------0-----------0------0------0---------
G--0------0------0-------0-----------0------0------0----------
B---0-0-0--0-0-0--0-0-----0-----------0-0-0--0-0-0--0-----3-
E----0-0----0-0----2-2-0---0-7*0-2*0---0-0----0-0----2p3-2-0-

E------------------------------------------------------
A-2-2-2-2-2-2-2-2-2-2-2-2-2-2-2-2-4----5-5-5-5-7-7-7-7--
D-4-4-4-4-4-4-4-4-4-4-4-4-4-4-4-4-6-x8-7-7-7-7-9-9-9-9-
Cubre tu manto.......(Mar Cabello)Esto se toca 2 veces

E------------------------------------------------------
A-3-3-3-3-3-3-3-3-3-3-3-3-3-3-3-3-7-------3------5-6----
D-5-5-5-5-5-5-5-5-5-5-5-5-5-5-5-5-9-varias5varias7-8---
Toma mi sangre.......(Jose)

E------------------------------------------------------
A-2-2-2-2-2-2-2--7-7-7-7-7-7-7--3-3-3-3-3-3-3---5--7---
D-4-4-4-4-4-4-4x29-9-9-9-9-9-9x25-5-5-5-5-5-5x2-7--9---
Y haz lo que digo.......

Se repite viloin

Y esto es el principio del solo, oiganla y sale

E------------------------------------------------------
A-2-2-2-0-2-------------------------2-2-2-0-2----------
D-4-4-4-0-4--------------8p9ppppppp-4-4-4-0-4----------
G-----------7-8-8/10-8-7-----------------------7-8-8/10--
B------------------------------------------------------
E---------------------------------------------4~~~-----

E------------------------------------------------------
A-2-2-2-0-2--------------------------------------------
D-4-4-4-0-4--------------------------------------------
G------------(7-9-10--------------10-9////-------------
B--------------------8-10)-8-8p10----------------------
E------------------------------------------------------

E------------------------------------------------------
A-2-2-2-0-2--------------------------------------------
D-4-4-4-0-4--------------------------------------------
G------------------------------------------------------
B-----------------11-14p15*14*11-12p14*12-11-9~~~~-----


Important: The song above is NOT stored on the Chordie server. The original song is hosted at www.xguitar.com. Chordie works as a search engine and provides on-the-fly formatting. Chordie does not index songs against artists'/composers' will. To remove this song please click here.

This song is displayed as text-only. Transposing and tuning is only available for chordpro-songs.

Login - add to songbook

Rating click stars to rate

Layout
Accuracy

SHARE PAGE  




You need to log in to post comments