Fiesta Pagana

Mago De Oz

e:  ------17-15-14--17-15-14----17-15-14--17-15-14|

B: ---15---------------------15------------------|
G: ----------------------------------------------|
e: ------15-14-12--15-14-12-----15-14-12--15-14-12--|
B: --14---------------------14----------------------|
G: -------------------------------------------------|

 BmBm
e:  -----17-15-14--17-15-14------17-15-14--17-15-14|
B:  --15---------------------15--------------------|
G:  -----------------------------------------------|

 AD
e:  -------15-14-12--15-14-12-----------------------|
B:  --14----------------------19-20-19-17-15-14-----|
G:  ------------------------------------------------|


 BmBm
e:  ----------17-15-14--17-15-14--------17-15-14--17-15-14|
B:  --15-15-15------------------15-15-15------------------|
G:  ------------------------------------------------------|

 AA
e:  ----------15-14-12--15-14-12--------15-14-12--15-14-12|
B:  --14-14-14------------------14-14-14------------------|
G:  ------------------------------------------------------|

 BmBm
e:  ---------17-15-14--17-15-14---------17-15-14--17-15-14|
B:  -15-15-15-------------------15-15-15------------------|
G:  ------------------------------------------------------|

 AD
e:  ----------15-14-12--15-14-12--------------------------|
B:  --14-14-14------------------19-19-19-20-19-17-15-14---|
G:  ------------------------------------------------------|


(this with distorsion)
 BmBm
e:  ----------17-15-14--17-15-14--------17-15-14--17-15-14|
B:  --15-15-15------------------15-15-15------------------|
G:  ------------------------------------------------------|

 AA
e:  ---------15-14-12--15-14-12--------15-14-12--15-14-12-|
B:  -14-14-14------------------14-14-14-------------------|
G:  ------------------------------------------------------|


 BmBm
e:  ---------17-15-14--17-15-14-------17-15-14--17-15-14--|
B:  -15-15-15------------------15-15-15-------------------|
G:  ------------------------------------------------------|

 AD
e:   ----------15-14-12--15-14-12------------------------|
B:  --14-14-14-------------------19-19-19-20-19-17-15-14-|
G:  -----------------------------------------------------|
B:  --12-14-15-17-15-14-12-12--10----|


 Bm
 Cuando despiertas un día
 AD
y sientes que no puedes más 
 Bm
 en el nombre del de arriba
 AD
 tu vida va a manejar.

(This fill sounds at the same time that the other guitar plays the next verse)

e:  --12/17—17-17-15-14-12-12-12--12/15-15-15-14-12-
B:  ------------------------------------------------
G:  ------------------------------------------------
e:  -------------------14-12-12-12-12------------|
B:  --15-14-12---12-15---------------15-14-12-12-|
G:  ---------------------------------------------|


 DA
 Si sientes que el miedo se pega a tu piel
 EmBm
 Por ser comunero y justicia querer
 ABm
Si te rindes hermano por ti nunca pensarás

e:  ---14-14-14-14--14-14-12-12------------------------|
B:  -12-12-12-12--12-----------15-14-12-15(bentz)-14-12|
G:  ---------------------------------------------------|
e:  ---14-14-14-14--14-14-12-14-----------------|
B:  -12-12-12-12--12-----------15/14/12-12------|
G:  --------------------------------------------|
e:  ---14-14-14-14--14-14-12-12------------------------|
B:  -12-12-12-12--12-----------15-14-12-15(bentz)-14-12|
G:  ---------------------------------------------------|
e:  ---14-14-14-14--14-14-12-14-----------------|
B:  -12-12-12-12--12-----------15/14/12-12---10-|
G:  --------------------------------------------|


 Bm
 Cuando vayan a pedirte
 AD
 Los diezmos a fin de mes
 Bm
 Y la santa inquisición
 AD
 te invite a confesar.

(This fill sounds at the same time that the other guitar plays the next verse)

e:  --12/17—17-17-15-14-12-12-12--12/15-15-15-14-12-
B:  ------------------------------------------------
G:  ------------------------------------------------
e:  -------------------14-12-12-12-12------------|
B:  --15-14-12---12-15---------------15-14-12-12-|
G:  ---------------------------------------------|


 DA
 Entonces amigo tu alza la voz,
 EmBm
 di que nunca pediste opinión
 BmA
 y si esa es la verdad que existe un Dios
 EBm
 que trabaje de sol a sol.

Chorus:

 BmA
 Ponte en pie, alza el puño y ven
 GGF#FE
 A la fiesta pagana en la hoguera hay de beber
 BmA
 De la misma condición no es el pueblo ni un señor
 GGF#FE
 Ellos tinen el clero, nosotros nuestro sudor.

 BmBm
e:  ---------17-15-14--17-15-14--------17-15-14--17-15-14-|
B:  -15-15-15------------------15-15-15-------------------|
G:  ------------------------------------------------------|

 AA
e:  ---------15-14-12--15-14-12--------15-14-12--15-14-12-|
B:  -14-14-14------------------14-14-14-------------------|
G:  ------------------------------------------------------|


 BmBm
e:  ---------17-15-14--17-15-14--------17-15-14--17-15-14-|
B:  -15-15-15------------------15-15-15-------------------|
G:  ------------------------------------------------------|

 AD
e:  ---------15-14-12--15-14-12--------------------------|
B:  -14-14-14------------------19-19-19-20-19-17-15-14---|
G:  -----------------------------------------------------|
B:  --12-14-15-17-15-14-12-12--10----|


 Bm
 Si no hay pan para los tuyos
 AD
 Y ves muy gordo al abad
 Bm
 Si su virgen viste de oro
 AD
 Desnudalá.

(This fill sounds at the same time that the other guitar plays the next verse)

e:  --12/17—17-17-15-14-12-12-12--12/15-15-15-14-12-
B:  ------------------------------------------------
G:  ------------------------------------------------
e:  -------------------14-12-12-12-12------------|
B:  --15-14-12---12-15---------------15-14-12-12-|
G:  ---------------------------------------------|


 DA
 Cómo van a silenciar
 EmBm
 Al jilguero o al canario
 BmA
 Si no hay carcel ni tumba
 EBm
 Para el canto libertario.

Chorus:

 BmA
 Ponte en pie, alza el puño y ven
 GGF#FE
 A la fiesta pagana en la hoguera hay de beber
 BmA
 De la misma condición no es el pueblo ni un señor
 GGF#FE
 Ellos tinen el clero, nosotros nuestro sudor.

e:  ---14-14-14-14--14-14-12-12------------------------|
B:  -12-12-12-12--12-----------15-14-12-15(bentz)-14-12|
G:  ---------------------------------------------------|
e:  ---14-14-14-14--14-14-12-14-----------------|
B:  -12-12-12-12--12-----------15/14/12-12------|
G:  --------------------------------------------|
e:  ---14-14-14-14--14-14-12-12------------------------|
B:  -12-12-12-12--12-----------15-14-12-15(bentz)-14-12|
G:  ---------------------------------------------------|
e:  ---14-14-14-14--14-14-12-14-----------------|
B:  -12-12-12-12--12-----------15/14/12-12---10-|
G:  --------------------------------------------|


Solo
guitar 2 plays the chorus.

(very fast)
e:  --------------------------------0-3-5/7-7-5-3----
B:  -------------5(bentz)-----0-3-5--------------5-3-
G:  -------3-4-5---------4-4-4----------------------4
D:  -3-4-5-------------------------------------------


(very fast)
e:  ---------------------0-3-5-6/5/3------------
B:  -3-5/7-5-3-2----0-3-5-----------5/3—0-3-5---
G:  -------------0-4-------------------4------4-
e:  -0-5-7---0-7-9---0-9-11-12-11/9------
B:  -------------------------------11-9--
G:  -------------------------------------
e:  -14-14-14-17-15-14------------------------------------
B:  ------------------17-15-15---15-17-15-14---14-15-14-12
G:  ------------------------------------------------------
e:  -14-14-14-17-15-14------------------------------------|
B:  ------------------17-15-15---15-17-15-14---14-15-14-12|
G:  ------------------------------------------------------|

(end of solo)

(ahora violín)

e:  --12/17—17-17-15-14-12-12-12--12/15-15-15-14-12-
B:  ------------------------------------------------
G:  ------------------------------------------------
e:  -------------------14-12-12-12-12------------|
B:  --15-14-12---12-15---------------15-14-12-12-|
G:  ---------------------------------------------|
e:  --12/17—17-17-15-14-12-12-12--12/15-15-15-14-12-
B:  ------------------------------------------------
G:  ------------------------------------------------
e:  -------------------14-12-12-12-12------------|
B:  --15-14-12---12-15---------------15-14-12-12-|
G:  ---------------------------------------------|


Estribillo: x2

 BmA
 Ponte en pie, alza el puño y ven
 GGF#FE
 A la fiesta pagana en la hoguera hay de beber
 BmA
 De la misma condición no es el pueblo ni un señor
 GGF#FE
 Ellos tinen el clero, nosotros nuestro sudor.

¡Cabrones!
 BmBm
e:  ----------17-15-14--17-15-14--------17-15-14--17-15-14|
B:  --15-15-15------------------15-15-15------------------|
G:  ------------------------------------------------------|

 AA
e:  ---------15-14-12--15-14-12--------15-14-12--15-14-12-|
B:  -14-14-14------------------14-14-14-------------------|
G:  ------------------------------------------------------|


AAAAAAAAAAAAAAAAAAAAAAHHHHHHHHHHHHHHHHHHHHHH!
 BmBm
e:  ---------17-15-14--17-15-14-------17-15-14--17-15-14--|
B:  -15-15-15------------------15-15-15-------------------|
G:  ------------------------------------------------------|


AAAAAAAAAAAAAAAAAAAAAAAHHHHHHHHHHHHHHHHHHHHH!
 AA
e:   ----------15-14-12--15-14-12-------15-14-12-17-15-14-|
B:  --14-14-14-------------------14-14-14-----------------|
G:  ------------------------------------------------------|

AAAAAAAAAAAAAAAAAAAAAAHHHHHHHHHHHHHHHHHHHHHH!
 BmBm
e:  ---------17-15-14--17-15-14-------17-15-14--17-15-14--|
B:  -15-15-15------------------15-15-15-------------------|
G:  ------------------------------------------------------|


AAAAAAAAAAAAAAAAAAAAAAAHHHHHHHHHHHHHHHHHHHHH!
 AA
e:   ----------15-14-12--15-14-12-------15-14-12-17-15-14-|
B:  --14-14-14-------------------14-14-14-----------------|
G:  ------------------------------------------------------|

 BmBm
e:  ---------17-15-14--17-15-14-------17-15-14--17-15-14--|
B:  -15-15-15------------------15-15-15-------------------|
G:  ------------------------------------------------------|

 AD
e:   ----------15-14-12--15-14-12------------------------|
B:  --14-14-14-------------------19-19-19-20-19-17-15-14-|
G:  -----------------------------------------------------|
B:  --12-14-15-17-15-14-12-14-12-13-|
B:  --12-14-15-17-15-14-12-12-------|


by ArKeRo

Dedicada a la gent ke li mola mago de oz... !!! i a tot catalunya......
akesta la dedicu als de sempre tmb!!


A Bm D E Em F F# G
variations - click chord images
Transpose chords:
Tuning:
Cool service:
View: Size:
A  A  A
Rating:
Layout:
  • Currently 0/5 Stars.
  • 1
  • 2
  • 3
  • 4
  • 5
 
Accuracy:
  • Currently 3/5 Stars.
  • 1
  • 2
  • 3
  • 4
  • 5
 
click stars to rate
Chordie recommends:
Get acoustic guitar lessons and electric guitar lessons at JamPlay.com
Songbook:
Login to add this song to your songbook
Support the artist
Preview/buy this song
MSN Music
Why this non-profit ad?

 
login to add comments/video/corrections