Guitar Tabs, Chords and Lyrics


La Santa Compa馻    Mago De Oz



M脛GO DE OZ - La Santa Compa帽a (Finis Terra, 2000).

Tabulado por Javier Jim茅nez Blanco (Sant Andreu de la Barca, Barcelona),
xjimenez@iec.es, 6/6/2000.
"Las huellas que deja el heavy quedan tatuadas en el coraz贸n..."


Intro / Riff:
		     x3			
e|---------------------------------------------------------------------------|
B|---------------------|-----------------------------------------------------|
G|---------------------|---5---7---------------------------------------------|
D|---7-----------------|---5---7---------------------------------------------|
A|---7--------5--------|---3---5---------------------------------------------|
E|---5--5--7-----8--7--------------------------------------------------------|

		     x3			
e|---------------------------------------------------------------------------|
B|---------------------|-----------------------------------------------------|
G|---------------------|---5-------------------------------------------------|
D|---7-----------------|---5---5---------------------------------------------|
A|---7--------5--------|---3---5---------------------------------------------|
E|---5--5--7-----8--7----------3---------------------------------------------|


Verso 1:

e|---------------------------------------------------------------------------|
B|---------------------------------------------------------------------------|
G|----------------------------5----------------------------------------------|
D|---7-------5---7------------5----5---7-7----------7------------------------|
A|---7-------5---7------------3----5---7-7----------7------------------------|
E|---5-------3---5-----------------3---5-5----------5------------------------|

     Cuando ...

			     x2
e|-----------------------------|---------------------------------------------|
B|-----------------------------|---------------------------------------------|
G|-----------------------------|---5^---/9^---7------------------------------|
D|---3-----5-----7-----7\5-----|-----------------9--10-----------------------|
A|---3-----5-----7-----7\5-----|---------------------------------------------|
E|---1路路路路路3路路路路路5路路路路路5\3-----|---------------------------------------------|

     algo ...

Puente:
			     x2	
e|-----------------------------|
B|-----------------------------|
G|-----------------------------|
D|---3-----5-----7-----7\5-----|
A|---3-----5-----7-----7\5-----|
E|---1路路路路路3路路路路路5路路路路路5\3-----|

     Portadores ...
 		
			
			     x2
e|-----------------------------|-----------|
B|-----------------------------|-----------|
G|------------------5----7-----|--9--------|
D|---3----5----7----5----7-----|--9--------|
A|---3----5----7----3----5-----|--7.....---|
E|---1----3----5---------------|-----------|

     Oh...	


Verso 2:

Verso 3:



Important: The song above is NOT stored on the Chordie server. The original song is hosted at www.xguitar.com. Chordie works as a search engine and provides on-the-fly formatting. Chordie does not index songs against artists'/composers' will. To remove this song please click here.

This song is displayed as text-only. Transposing and tuning is only available for chordpro-songs.

Login - add to songbook

Rating click stars to rate

Layout
Accuracy

SHARE PAGE  




You need to log in to post comments