Guitar Tabs, Chords and Lyrics


Hechicera    Mana



Esta cancion tiene cuatro guitarras incluyendo la acustica,
yo solo pondre las figuras de la 1ra gtr y lo que corresponde
a la gtr acustica.

La 2da gtr es casi la misma en toda la cancion, nada mas
es cuestion de escuchar la grabacion para agarrarle la onda.


   intro 2nd gtr:
e-|-5--5--5--7----5--5--5-8-x-8-88-7--5----------|-
B-|-5--5--5--7----5--5--5-8-x-8-88-7-5-----------|-
G-|-5--5--5--7----5--5--5------------------------|-
D-|----------------------------------------------|-
A-|----------------------------------------------|-
E-|----------------------------------------------|-


   luego sigue esto:
   La 2nd gtr hace esto casi toda la cancion
e-|-5--5--5--5--5--5--5--5--5--5--5--5--5^-------|-
B-|-5--5--5--5--5--5--5--5--5--5--5--5--5^-------|-
G-|-5--5--5--5--5--5--5--5--5--5--5--5--5^-------|-
D-|----------------------------------------------|-
A-|----------------------------------------------|-
E-|----------------------------------------------|-
  |
  |(fig.1) 1st gtr
e-|----------------------------------------------|-
B-|----------------------------------------------|-
G-|-----------------4-5^------------------4-5p4--|-
D-|-7-7-5-7--7--5-7-------7-7-5-7--7--5-7--------|-
A-|----------------------------------------------|-
E-|----------------------------------------------|-


   (fig.2) 1st gtr
   Hay__que bonitos ojos__, Hay__ que bonita boca__..
e-|------------------------|-----------------------------|
B-|------------------------|-----------------------------|
G-|--------------------5-5-|-----------------7/9-5-------|
D-|-7-7-5-7-7--7-5-7-7-----|-7-7-5-7--7--5-7-------7-5-7-|
A-|------------------------|-----------------------------|
E-|------------------------|-----------------------------|


   Aqui entra el 1er riff de la gtr acustica, hay que hacer el
   acompa├▒amiento con las otras dos guitarras.
   Riff 1 (gtr acustica)
e-|---------------------------------------------8-8-------5/7---|
B-|-------------------------------------------------------------|
G-|--------7-9-10-10/12-10-9-7-9h10p9~---7/9-9-9-----9\7-5------|
D-|-7-9-10------------------------------------------------------|
A-|-------------------------------------------------------------|
E-|-------------------------------------------------------------|


   (fig.3) 1st gtr
   Es una hechicera__ Una seductora__...
e-|------------|-----------------------------|----------------------------|
B-|------------|-----------------------------|----------------------------|
G-|--------4-5-|--------4-5-5--4-5-7-5-4-5p4-|--------4-5--------4-5--4-5-|
D-|-5-5-7-7----|-5-5-7-7---------------------|-5-5-7-7----5-5-7-7---------|
A-|------------|-----------------------------|----------------------------|
E-|------------|-----------------------------|----------------------------|


  SOLO GTR ACUSTICA:

   Riff 2 (gtr acustica)
e-|-------------------------------------------------------------
B-|--(en un solo mov)-----------------6/8-6--6-5-5--------------
G-|---------------------------------5--------------7--7-5-7/9\--
D-|-9h10p9p7h-9h10p9p7h9~---7-7-7-9-----------------------------
A-|-------------------------------------------------------------
E-|-------------------------------------------------------------


 -|--------8-------7-------8/10-10~------------10-12-13-15------
 -|-----------------------------------10-12-13------------------
 -|-7/9-99(9)--999(9)--999(9)-----------------------------------
 -|-------------------------------------------------------------
 -|-------------------------------------------------------------
 -|-------------------------------------------------------------

   (esta parte es rapida y un poco complicada, es cuestion de
    ordenar bien los dedos)
 -|-12-13-10-12----10-------------------------------------------
 -|---------------13----12-13-10-12----10-----------------------
 -|---------------------------------12----10-10h12-9~-----------
 -|-------------------------------------------------------------
 -|-------------------------------------------------------------
 -|-------------------------------------------------------------


   Riff 3
e-|--1---------------------------0------------------------------
B-|--1---1--1--1--1--1-----------0---0--0--0--0-----------------
G-|--2----2--2--2--2-------------1----1--1--1--1----------------
D-|--3-----3--3--3--3------------2-----2--2--2--2-0-------------
A-|--3----(arpegeado)------------2------------------------------
E-|--1------------------1h3p1p0--0--------------------1h3p1p0---


 -|--1-------------------3---1---0------------------------------
 -|--1---1--1--1--1--1---3---1---0------------------------------
 -|--2----2--2--2--2-----4---2---1------------------------------
 -|--3-----3--3--3--3----5---3---2------------------------------
 -|--3-------------------5---3---2------------------------------
 -|--1-------------------3---1---0------------------------------




Important: The song above is NOT stored on the Chordie server. The original song is hosted at www.xguitar.com. Chordie works as a search engine and provides on-the-fly formatting. Chordie does not index songs against artists/composers will. To remove this song please click here.

This song is displayed as text-only. Transposing and tuning is only available for chordpro-songs.

Login - add to songbook

Rating click stars to rate

Layout
Accuracy

SHARE PAGE  




You need to log in to post comments