Guitar Tabs, Chords and Lyrics


Motorcycle Emptiness  Manic Street Preachers

e ----------------------------------------------------------


b ----------------------------------------------------------


g ----------------------------------------------------------


d -9b11r9----7-9----7-9---9b11r9----7-9--7-9---9b11r9---11--


a ----------------------------------------------------------


e ----------------------------------------------------------


e --------------------------------------------------------------------


b --------------------------------------------------------------------


g -13b14r13--11-13-11-13------13b14r13--11-13-11-13----13b14r13---14--


d --------------------------------------------------------------------


a --------------------------------------------------------------------


e --------------------------------------------------------------------


e -----------------------------------------------------------------------


b --12b14r12---10-12-10-12---12b14r12---10-12-10-12-----12b14r12-----14--


g -----------------------------------------------------------------------


d -----------------------------------------------------------------------


a -----------------------------------------------------------------------


e -----------------------------------------------------------------------


e ---------------------------------------------------------


b ---------------------------------------------------------


g ---------------------------------------------------------


d -7-9-9-9-9-9-11-11-11-11-13-13-13


a ---------------------------------------------------------


e ---------------------------------------------------------

[b]g
d-------7------9-------11--------13

[a]e
INTRO:-
(E B/D# C#m A)under Riff 1, Riff 4
(E B/D# C#m A)under Riff 2, Riff 4
VERSE1:-
[E]Culture sucks down w[B/D#]ords
C#m A (E B/D# C#m A)under riff 3, riff 4
Itemise loathing and feed yourself smiles
[E]Organise your safe Tri[B/D#]bal War
C#m A (E B/D# C#m A)under riff 2, riff 5
Hurt main kill and enslave the ghetto
BRIDGE:
[C#m]Each day [E]living out a lie
B A(for 4 bars)
Life sold so cheaply forever, ever, ever
CHORUS:
[E]Under neon [B/D#]loneliness,[C#m] motorcycle[A] emptiness
[E]Under neon [B/D#]loneliness,[C#m] motorcycle [A]emptiness
VERSE 2:
(E B/D# C#m A)under riff1, riff 4
[E]Life lives a slow s[B/D#]uicide
C#m A (E B/D# C#m A)under riff 3, riff 4
Orthodox dreams and Symbolic myths
[E]>From fuedal serf to[B/D#] spender
C#m A (E B/D# C#m A)under riff 2, riff 5
This wonderful world of purchase power
BRIDGE:
[C#m]Just like lungs suckin[E]g on air
B A(for 4 bars)
Survivals natural as sorrow, sorrow, sorrow
CHORUS:
[E]Under neon [B/D#]loneliness,[C#m] motorcycle[A] emptiness
[E]Under neon [B/D#]loneliness,[C#m] motorcycle [A]emptiness
MIDDLE 8:
A, B, A, B, C, D, C, D
[A]All we want from [B]you are the kicks[A] you've given us[B]
[C]All we want from [D]you are the kicks[C] you've given us[D]
[A]All we want from [B]you are the kicks[A] you've given us[B]
C D C D(1 strum)
All we want from you are the kicks you've given us
CHORUS:
CHORUS:
[E]Under neon [B/D#]loneliness,[C#m] motorcycle[A] emptiness
[E]Under neon [B/D#]loneliness,[C#m] motorcycle [A]emptiness
SOLO:
(E G A E E G A E(one strum))under:(this may not b accurate)
e
b--12--13-12-----------------------12---13--17--15--14--15--14
g--------------------13-----------13--------------------------
d-----------------------------14------------------------------

[a]e
e
b-12-----------------------------------------12--13---12---------------
g--------14--16--14--11--13---16---------------------13--------13------
d---------------------------------------------------------------------14

[a]e
e
b----------12----------17--15-15--15-15-15---15-------------------------

g
[d]  [a]e
VERSE 3:
[E]Drive away and its the [B/D#]same
C#m A (E B/D# C#m A)under riff 2, riff 4
Everywheres death row, everyones a victim
[E]Your joys are counter[B/D#]feit
[C#m]This happiness corrupt p[A]olitical shit
BRIDGE:
[C#m]Living life like a[E] comatose
B A(for 4 bars)
Ego loaded and swallow, swallow, swallow
CHORUS:
[E]Under neon [B/D#]loneliness,[C#m] motorcycle[A] emptiness
[E]Under neon [B/D#]loneliness,[C#m] motorcycle [A]emptiness
[E]Under neon [B/D#]loneliness,[C#m] motorcycle[A] emptiness
[E]Under neon [B/D#]loneliness,[C#m] Everlasting[A] loveliness
OUTRO:
(E B/D# C#m A)*4 under something like
e
b-----12--10--8--12--10--8--12--10--8--12--10--8--12--10--8--

g
[d]  [a]e
e
b--12-/-14-\-12----10-12-10-12---12-/14-\12-----5-5-5-5-5--7-9-7-5

g
[d]  [a]e
e
b-9-9-9-9-9--11-13-11-9---11-/-13-\-11--9-11--9--11-----11-/13-\-11-----13

g
[d]  [a]e
repeat solo and improvise as neccesary.
[E]   

Important: The song above is NOT stored on the Chordie server. The original song is hosted at www.xguitar.com. Chordie works as a search engine and provides on-the-fly formatting. Chordie does not index songs against artists'/composers' will. To remove this song please click here.

Text color:
Chord color:
Chord grids: 
Font size:    
Page size: 

A B C C#m D E
variations - click chord images

Login - add to songbook

Transpose chords

Tuning

Rating click stars to rate

Layout
Accuracy

SHARE PAGE  




You need to log in to post comments