Guitar Tabs, Chords and Lyrics


Dead Martyrs  Manic Street Preachers

   [D]    [Ab]    [C]    [A]    [B]   [F#m]     [G]  [G#min]                                                                      
e|-5---4---8---5---7---2---3---4--|
B|-7---4---8---5---7---2---3---4--|
G|-7---5---9---6---8---2---4---4--|
D|-7---6---10--7---9---4---5---6--|
A|-5---6---10--7---9---4---5---6--|
E|-5---4---8---5---7---2---3---4--|

Intro:
=====
D, Ab
Verse:
=====
[D]Dead martyrs
All stigmart[Ab]ys
[D]Dead heroes
For fear of zero[Ab]es
Dead martyrs
Always take it further
Dead heroes
Know no fear
Bridge:
======
[C]Living for some [A]happiness
[C]Find nothing that [A]satisfies
[C]Had a beginning but it got no[A] end
Chorus:
======
[B]Got no future[F#m]
Just dead s[G]tars for dead ey[G#min]es
Got no future
Just dead stars for dead eyes
Got no future
Dead stars are always the blackest
Dead heroes the living empty
Dead martyrs hang on forever
Dead martyrs always take it further
Living for some happiness
Find nothing that satisfies
Had a beginning but it got no end
Got no future
Just dead stars for dead eyes
Got no future
Just dead stars for dead eyes
Got no future
Got no future
Just dead stars for dead eyes
Got no future
Just dead stars for dead eyes
Got no future
===========================================================================
===========================================================================
===========================================================================
Dead Martyrs
Tabbed by Stu Chown stickler@another.com and Madbob b0b1@hotmail.com
http://www.geocities.com/m4dbob
Background Intro(Quietly)
e|---------------------------|
B|---------------------------|
G|-10-10-10-10-10--6-6--6-6--|
D|-10-10-10-10-10--6-6--6-6--|
A|-8--8--8--8--8---4-4--4-4--|
E|---------------------------|

INTRO/VERSE RIFF
  [F]                  [C#]                                                                              
E|-----------------------------|
B|-----------------------------|
G|-10-10-10-10-10-10-6-6--6-6--|
D|-10-10-10-10-10-10-6-6--6-6--|
A|-8--8--8--8--8--8--4-4--4-4--|
E|-----------------------------|

INTRO/VERSE RIFF (palm muted)
|-Palm mute-|
E|--------------------------------|
B|--------------------------------|
G|-10--10-10-10-10---10-6-6--6-6--|
D|-10--10-10-10-10---10-6-6--6-6--|
A|-8---8--8--8--8----8--4-4--4-4--|
E|--------------------------------|

VERSE 1(with riff palm muted)
Dead martyrs
All stigmartyrs
Dead heroes
For fear is zero
VERSE 2
Dead martyrs
Always take it further
Dead heroes
Know no fear
BRIDGE
   [C]               [Ab]                                                                                
E|-----------------------------------|
B|-----------------------------------|
G|--5-5-5-5-5-5-5--------------------|
D|--5-5-5-5-5-5-5-6-6-6-6-6-6-6-6-6--|
A|--3-3-3-3-3-3-3-6-6-6-6-6-6-6-6-6--|
E|----------------4-4-4-4-4-4-4-4-4--|

Living for some happiness ..etc.
[C]Living f[Ab]or some happiness
[C]Find n[Ab]othing that satisfies
[C]Had a b[Ab]eginnning but ain't got no [G5]end
CHORUS
e|-----------------------------------------------------------------------|
B|-----------------------------------------------------------------------|
G|-----------------------------------------------------------------------|
D|--8-8-10-8-8-8-10-8----------------------------------------------------|
A|--6-6-6--6-6-6-6--6-6-6-8-6-6-6-8-6--5-5-6-5-5-5-7-5--6-6-8-6-6-6-8-6--|
E|--------------------4-4-4-4-4-4-4-4--3-3-3-3-3-3-3-3--4-4-4-4-4-4-4-4--|x2
e|----------------------------------------|
B|----------------------------------------|
G|----------------------------------------|
D|-3-3-3-3-3-3-6-6-6-6-6-6-8--8-8--8-8--8-|
A|-3-3-3-3-3-3-6-6-6-6-6-6-8--8-8--8-8--8-|
E|-1-1-1-1-1-1-4-4-4-4-4-4-6--6-6--6-6--6-|

[Eb]Got no [Ab]future
[G]Just dead [Ab]stars for dead eyes
[Eb]Got no [Ab]future
[G]Just dead [Ab]stars for dead eyes
[F]Got no [Ab]futur[A#]e
REPEAT INTRO(with this second time)
e|-------------------------------|
B|-------------------------------|
G|-10-10-10-10-10-10--6-6-6-6-8--|
D|-------------------------------|
A|--8--8--8--8--8--8--4-4-4-4-6--| x2
E|-------------------------------|

VERSE 3 (Palm Muted)
Dead stars are always the blackest
Dead heroes are living empty
Dead martyrs hang on forever
Dead martyrs always take it further
REPEAT BRIDGE
REPEAT CHORUS x 2
OUTRO - REPEAT INTRO x4
end on 3 strums of F#5
===========================================================================
===========================================================================
===========================================================================
Author/Artist: Manic Street Preachers
Title: Dead Martyrs
Album: Know Your Enemy
Transcribed by: Jamie Wharton - www.envy.nu/manicsguitar/index.htm
Email: manics_guitar_guide@hotmail.com
Intro and verse -
[Dm]   [F#m]                                                                                              
-5--2--|----------------------------------------------------------------------
-5--2--|----------------------------------------------------------------------
-6--2--|----------------------------------------------------------------------
-7--4--|-7--4--2--------------------------------------------------------------
-7--4--|-7--4--2--------------------------------------------------------------
-5--2--|-5--2--0--------------------------------------------------------------

Chorus -
(Only play first time)
-----------------|-----------------|-----------------|-----------------|----------------
-----------------|-----------------|-----------------|-----------------|----------------
-5-5-5-5-5-5-5-5-|-----------------|-----------------|-----------------|-5-5-5-5-5-5-5-3
-5-5-5-5-5-5-5-5-|-5-5-5-5-5-5-5-5-|-2-2-2-2-2-2-2-2-|-3-3-3-3-3-3-3-3-|-5-5-5-5-5-5-5-3
-3-6-3-3-3-6-3-3-|-5-5-5-5-5-5-5-5-|-2-2-2-2-2-2-2-2-|-3-3-3-3-3-3-3-3-|-3-6-3-3-3-6-3-3       x2
-----------------|-3-6-3-3-3-6-3-3-|-0-3-0-0-0-3-0-0-|-1-4-1-1-1-4-1-1-|----------------

Chorus end -
-----------------------|----------------|----------------------------------------
-----------------------|----------------|----------------------------------------
-----------------------|----------------|----------------------------------------
-------2-2-2-2-2-2-2-2-|3-3-3-3-3-3-3-3-|-5--------------------------------------
-------2-2-2-2-2-2-2-2-|3-3-3-3-3-3-3-3-|-5--------------------------------------
-------0-3-0-0-0-3-0-3-|1-4-1-1-1-4-1-1-|-3--------------------------------------

Little fill from verse 2 onwards -
------------------------------------------------------------------------------
------------------------------------------------------------------------------
---------77777s3333333s77777--------------------------------------------------
------------------------------------------------------------------------------
------------------------------------------------------------------------------
------------------------------------------------------------------------------

Corrections welcome (and likely)!

Important: The song above is NOT stored on the Chordie server. The original song is hosted at www.xguitar.com. Chordie works as a search engine and provides on-the-fly formatting. Chordie does not index songs against artists'/composers' will. To remove this song please click here.

Text color:
Chord color:
Chord grids: 
Font size:    
Page size: 

A A# Ab B C C# D Dm Eb F F#m G G#min G5
variations - click chord images

Login - add to songbook

Transpose chords

Tuning

Rating click stars to rate

Layout
Accuracy

SHARE PAGE  




You need to log in to post comments