Guitar Tabs, Chords and Lyrics


Found That Soul  Manic Street Preachers

e|--------------------------------|


B|--------------------------------|


G|-9--9--9------------------------|


D|-9--9--9--11--11-11-11-11-11-11-| 


A|----------11--11-11-11-11-11-11-|


E|----------9---9--9--9--9--9--9--|


e|----------------------------|


B|----------------------------|


G|----------------------------|


D|-12-12-12-9--9--9-9--9--9---| 


A|-12-12-12-9--9--9-9--9--9---|


E|-10-10-10-7--7--7-7--7--7---|

So be[C#5]autiful
CHORUS
[A5]But I fo[G#5]und that [C#5]soul
[C#5]Yeah I found that home
[A5]Oh I fou[G#5]nd that s[C#5]oul
[A5]But I fo[G#5]und that [C#5]soul
[C#5]Yeah I found that now
[A5]Oh I fou[G#5]nd that s[C#5]oul
VERSE 2 (same as verse 1)
Not a subject
Not a subject of mine
Sick and pale
But strangely alive
Broken blood-vessels
Line my cheeks
Reflections look bad
But somehow real
CHORUS
Riff 3
e|------------------------|
B|-9----------------------|
G|-11bu13-(13)-11-9-------|
D|------------------11----|
A|------------------------|
E|------------------------|

[A5]But I fo[G#5]und that [C#5]soul
[C#5]Yeah I found that home
A5 G#5 C#5 riff 3
Oh I found that soul
[A5]But I fo[G#5]und that [C#5]soul
[C#5]Yeah I found that now
[A5]Oh I fou[G#5]nd that s[C#5]oul
FOUND THAT SOUL(O)
e|--------------------------------------------------------|
B|--5------5---5---5---5---7------7-----7-----7-----7-----|
G|--7bu9--(9)-(9)-(9)-(9)--9bu11-(11)--(11)--(11)--(11)---|
D|--------------------------------------------------------|
A|--------------------------------------------------------|
E|--------------------------------------------------------|
e|--------------------------------------------------------------------------|
B|--9--------9-----9-----9-----9-------9--------9-----9-----9-----9---------|
G|--11bu13--(13)--(13)--(13)--(13)-----11bu13--(13)--(13)--(13)--(13)-------|
D|--------------------------------------------------------------------------|
A|--------------------------------------------------------------------------|
E|--------------------------------------------------------------------------|
e|-----------------------------------------------------|
B|-10-------10----10---9-------7------7-----7-----7----|
G|-12bu14--(14)--(14)--11bu13--9bu11-(11)--(11)--(11)--|
D|-----------------------------------------------------|
A|-----------------------------------------------------|
E|-----------------------------------------------------|
e|---------------------------------------------------|
B|-5------5---5---5---5----5---5---3-----------------|
G|-7bu9--(9)-(9)-(9)-(9)--(9)-(9)--5bu7-(7)-(7)~~~---|
D|---------------------------------------------------|
A|---------------------------------------------------|
E|---------------------------------------------------|
e|----------14----------16bu18-(18)bd16-14-----------|
B|--14---------16-14-----------------------16-14-----|
G|--16bu18-----------16--------------------------16--|
D|---------------------------------------------------|
A|---------------------------------------------------|
E|---------------------------------------------------|
e|--14------14----14----14----14---14---14------14----14----14----14---14---|
B|--14------14----14----14----14---14---14------14----14----14----14---14---|
G|--16bu18-(18)--(18)--(18)--(18)-(18)--16bu18-(18)--(18)--(18)--(18)-(18)--|
D|--------------------------------------------------------------------------|
A|--------------------------------------------------------------------------|
E|--------------------------------------------------------------------------|
e|--------------------------------------------------------------------------|
B|--------------------------------------------------------------------------|
G|--6bu8-6bu8-4-6bu8bd6--4-6-4--4bu6-4bu6-2-4bu6bd4-2 slide up--------------|
D|--------------------------------------------------------------------------|
A|--------------------------------------------------------------------------|
E|--------------------------------------------------------------------------|
e|--14------14----14----14----14---14---14------14----14----14----14---14---|
B|--14------14----14----14----14---14---14------14----14----14----14---14---|
G|--16bu18-(18)--(18)--(18)--(18)-(18)--16bu18-(18)--(18)--(18)--(18)-(18)--|
D|--------------------------------------------------------------------------|
A|--------------------------------------------------------------------------|
E|--------------------------------------------------------------------------|

CHORUS
Riff 4
e|-----------------------------|
B|-9---------------------------|
G|-11bu13-(13)-11-9h11p9-------|
D|-----------------------11----|
A|-----------------------------|
E|-----------------------------|

[A5]But I fo[G#5]und that [C#5]soul
[C#5]Yeah I found that home
A5 G#5 C#5 riff 4
Oh I found that soul
[A5]But I fo[G#5]und that [C#5]soul
[C#5]Yeah I found that now
[A5]Oh I fou[G#5]nd that s[C#5]oul
Outro
Riff 1
Show me a wonder
Riff 1
Show me a wonder
Riff 1
Show me a wonder
Riff 1
Show me a wonder
===========================================================================
===========================================================================
===========================================================================
FOUND THAT SOUL
Transcribed by Fung Mak fung.mak@strath.ac.uk
Chords Used:
C#5: X466XX
A5: 577XXX
B5: 799XXX
D5: 577XXX
E5: 799XXX
Eb5: 688XXX
Riff 1
e||-------------------------------|
B||-------------------------------|
G||-------------------------------|
D||-9--9--9--6---6--6--6--6--6--6-|
A||-7--7--7--4---4--4--4--4--4--4-|
E||-------------------------------|

Riff 2
e||-------------------------------|
B||-------------------------------|
G||-------------------------------|
D||-9--9--9-----------------------|
A||-7--7--7---9--9--9--9--9--9--9-|
E||-----------7--7--7--7--7--7--7-|

Riff 3
e||-------------------------------|
B||-------------------------------|
G||-------------------------------|
D||-------------------------------|
A||-7--7--7---9--9--9--9--9--9--9-|
E||-5--5--5---7--7--7--7--7--7--7-|

Riff 4 (bass)
e||-------------|
B||-------------|
G||-------------|
D||-------------|
A||------4--7-4-|
E||-4--7--------|

Riff 5 (bass)
e||-------------|
B||-------------|
G||-------------|
D||-------4-6---|
A||-4--7------4-|
E||-------------|

(INTRO)
Riff 1 x3
(VERSE 1)
Riff 1
Show me a wonder
Riff 1
You can't be sure of
Riff 1
I exist in a place
Riff 2
A self-made vacuum
Riff 4
Riff 3
But still stranded here
Riff 5
Riff 1
With all the scum
Riff 1
So clean, so lost
So be[C#5]autiful
(CHORUS)
[A5]But I fo[G#5]und that [C#5]soul
[E5]Yeah[D5] I fo[C#5]und t[B5]hat h[A5]ome
[A5]Oh I found that s[C#5]oul
[A5]But I fo[G#5]und that [C#5]soul
[E5]Yeah[D5] I fo[C#5]und t[B5]hat n[A5]ow
[A5]Oh I found that s[C#5]oul
(VERSE 2) (same as verse 1)
Not a subject
Not a subject of mine
Sick and pale
But strangly alive
Broken blood-vessels
Line my cheeks
Reflections look bad
But somehow real
REPEAT CHORUS x2
(SOLO)
e||--------------------------------------------------|
B||--------------------------------------------------|
G||-/\/-7b9-9v-9v-9v-9v-9v--9b11-11v-11v-11v-11v-11v-|
D||--------------------------------------------------|
A||--------------------------------------------------|
E||--------------------------------------------------|
e||-----------------------------------------------|
B||-----------------------------------------------|
G||-11b13-13v-13v-13v-13v-13v-13v-13v-13v-13v-13v-|
D||-----------------------------------------------|
A||-----------------------------------------------|
E||-----------------------------------------------|
e||---------------------------------------------------|
B||---------------------------------------------------|
G||-13b14-14-14--14-13--11--11-11-11-9--8--8-8-8--4b6-|
D||---------------------------------------------------|
A||---------------------------------------------------|
E||---------------------------------------------------|

Rest is based on the F#m pentatonic scale (14th fret)
REPEAT CHORUS
[C#]Show me a wonder
Show me a wonder
Show me a wonder
Show me a wonder
===========================================================================
===========================================================================
===========================================================================
FOUND THAT SOUL
Tuning:EADGBE
Chords:
E5:07xxxx
C#5:9.11.11.xxx
F#5:x9.11.xxx
B5:799xxx
A5:577xxx
G#5:466xxx
C#5(II):x466xx
C#5/G#:4466xx
E5(II):079xxx
C#m:xx6654
There are three guitars in this song, and I have transcribed them all
seperately to avoid too much confusion, as it is quite complicated.
Gtr.1 just plays the chords, Gtr.2 is the main lead guitar, playing
chords, riffs and the solo. Gtr.3 is the one you don't notice 1st time
you hear it, playing an interesting bit in the chorus, and a bit in the
background in the solo.
Gtr.1 (cleanish sound)
INTRO
E5 C#5 x3
VERSE
E5 C#5 x4
F#5 B5 x2
E5 C#5 x2
CHORUS
A5 G#5 C#5(II) x4 (pause for 6 1/2 beats)
REPEAT VERSE
REPEAT CHORUS (w/out pause at end)
SOLO
A5 G#5 C#5/G# x4
REPEAT CHORUS (w/out pause at end)
OUTRO
E5 C#5 x5 (last time use pitch pedal to go down)
Gtr.2 (distorted)
INTRO
Gtr.1 plays E5 C#5 (once)
then
Gtr.2
E5 C#5 x2
VERSE
E5 C#5 x2
--------------
--------------
--------------
--------------
--------------

-9/12-12-12\9- C#5
[E5]            [C#5]                                                                                    
-------------
-------------
-------------
-------------
-------------

-9/16-16-16\- B5
-------------
-------------
-------------
-------------

-9-16-16-16\-
------------- B5

E5 C#5 x2
CHORUS
A5 G#5 C#5 x3
----------------------
--------9-------------
-11-11-11-(13)-(11)-9-
----------------------
----------------------
----------------------

A5 G#5 C#5 (pause for 6 1/2 beats)
REPEAT VERSE
CHORUS 2
A5 G#5 C#5 x2
-------------------------------
--9--------9----9--------------
-11-(13)-(13)-(13)-11-9--------
------------------------11-11\-
-------------------------------
-------------------------------

[A5]A5          [G#5]G#5          [C#5/G#]C#5 (w/out pause)
SOLO (most notes are played more than is tabbed)
(notes in brackets happen accidently)
------------------------------------------------------------------------------
------------5----7------9-------------10------9-----7------5----4-------2-----
------------7(9)-9(11)-11(13)---------12(14)-11(13)-9(11)--7(9)-6(8)--4-4(6)--
-----------(7)-(11)---(11)----------------------------------------------------
-7/13\7/13\-------------------------------------------------------------------
------------------------------------------------------------------------------
-----14-----14-------16-16(17)(16)-16-14---------------------------------------
-----14--------17-14---------------------17-14-------14------14---14-----------
-/16-16(18)------------------------------------16-16-16(18)-(18)-(18)-16-14-16-
-------------------------------------------------------------------------------
-------------------------------------------------------------------------------
-------------------------------------------------------------------------------
---------------5----7-7(9)(7)-5-5-4------------------------------------------
-14-------\-xx-5------------------4---------------14-----14--14--------------
-16(18)---\-xx-6--6---------------4-4-6-6(8)(6)-4-16(18)(18)-16(18)-16-14-16-
-----------------------------------------------------------------------------
-----------------------------------------------------------------------------
-----------------------------------------------------------------------------
-----------
-14------\-

-16(18)--\-
-----------
-----------
-----------

CHORUS 3
[A5]            [G#5]             [C#5/G#]       [A5]            [G#5]             [C#5]                                                                                    
-------------------------------
--9--------9----9--------------
-11-(13)-(13)-(13)-11-9--------
-------------------------------
------------------------11-11\-
-------------------------------

A5 G#5 C#5/G# x2
OUTRO
E5(II) C#5 x4
E5(II) C#m (use pitch pedal to go down)
Gtr.2 (distorted, but lower in mix than Gtr.2)
INTRO (no gtr.3)
VERSE (no gtr.3)
CHORUS
w/phaser
----------------
----------------
-6--2-bars------
----------------
----------------
---------------- x8

VERSE (no gtr.3)
REPEAT CHORUS
SOLO (cancel phaser)
no gtr.3 for 8 bars
then
------------------------
-14-----14--14--14--14--

-16(18)(18)(18)(18)(18)-
------------------------
------------------------
------------------------ x8

REPEAT CHORUS
OUTRO
w/phaser
----------------
----------------
-6--2-bars------
----------------
----------------
---------------- x4
-------
-------
-6----- use pitch pedal
------- to go down.
-------
-------

My email address is s_laughter_uk@yahoo.co.uk
You can email me about anything and I will reply, unless I am dead or
in a coma or something.
===========================================================================
===========================================================================
===========================================================================
manic street preachers
found that soul
music:bradfield/moore lyrics:wire
tabbed by mark griffiths
tabbed from live television broadcast
Intro/Verse
E|------------------------------------------|
B|------------------------------------------|
G|------------------------------------------|
D|----9-9-9-9-9-9-9-9----9-9-9-9-9-9-9-9----|
A|----9-9-9-9-9-9-9-9----7-7-7-7-7-7-7-7----|
E|----7-7-7-7-7-7-7-7----0-0-0-0-0-0-0-0----|x4
E|------------------------------------------|
B|------------------------------------------|
G|------------------------------------------|
D|----7-7-7-7-7-7-7-7----9-9-9-9-9-9-9-9----|
A|----7-7-7-7-7-7-7-7----7-7-7-7-7-7-7-7----|
E|----5-5-5-5-5-5-5-5----0-0-0-0-0-0-0-0----|x4
E|------------------------------------------|
B|------------------------------------------|
G|------------------------------------------|
D|----9-9-9-9-9-9-9-9----9-9-9-9-9-9-9-9----|
A|----9-9-9-9-9-9-9-9----7-7-7-7-7-7-7-7----|
E|----7-7-7-7-7-7-7-7----0-0-0-0-0-0-0-0----|x2

Verse
E|---------------------------------------------|
B|--------------------------5-5-5-5-5-5-5-5----|
G|----6-6-6-6---------------6-6-6-6-6-6-6-6----|
D|----7-7-7-7----6-6-6-6----6-6-6-6-6-6-6-6----|
A|----7-7-7-7----6-6-6-6----4-4-4-4-4-4-4-4----|
E|----5-5-5-5----4-4-4-4-----------------------|x4

End on
E|----4----|
B|----5----|
G|----6----|
D|----6----|
A|---------|
E|---------|


Important: The song above is NOT stored on the Chordie server. The original song is hosted at www.xguitar.com. Chordie works as a search engine and provides on-the-fly formatting. Chordie does not index songs against artists'/composers' will. To remove this song please click here.

Text color:
Chord color:
Chord grids: 
Font size:    
Page size: 

A5 B5 C# C#5 C#5/G# D5 E5 G#5
variations - click chord images

Login - add to songbook

Transpose chords

Tuning

Rating click stars to rate

Layout
Accuracy

SHARE PAGE  




You need to log in to post comments