Guitar Tabs, Chords and Lyrics


Be Natural  Manic Street Preachers

e|-----------------------------|


B|--------10------10-----------|


G|---9/11----9/11----9/11\9----|


D|-0------------------------12-|


A|-----------------------------|


E|-----------------------------|


e|-----------------------------|


B|-------11-------11----11-----|


G|-10/12----10/12----12--------|


D|-0--------0------------------|


A|-----------------------------|


E|-----------------------------|


e|----------14-15-14-|-18-15------------|


B|-------15----------|------15----------|


G|----14-------------|--------15--------|


D|-12----------------|----------17------|


A|-------------------|------------17-13-|


E|-------------------|------------------|


e|---------------17-15-|


B|-------------15------|


G|-----------15--------|


D|---------15----------|


A|-13-15-17------------|


E|---------------------|

But it's [Em]too late now to say [Gm]goodbye
Verse2:
Be [D]natural don't wan't any [Gm]friends
D (Intro Riff) Gm
Come on and hit me again
D (Intro Riff) Gm (Riff 3)
Be natural I'm repeating myself
Be [Em]natural is there anyone [Gm]else
Bridge1:
e|----------------------------------------------------------|
B|---------------------------------6-6-6-8-8-8-101010-11-10-|
G|-------------------5-5-7-7-9-9-9--------------------------|
D|-5-5-5-7-7-7-8-8-8---------------3-3-3-5-5-5--7-7-7--9--8-|
A|-------------------3-3-5-5-7-7-7--------------------------|
E|-3-3-3-5-5-5-6-6-6----------------------------------------|

Chorus:
[F]Star[A]bright [Bb]keep me safe
A                 Riff 4     e|-5-5-5-5-3-1-0-1-|
Today and tonight            B|-5-5-5-5-3-1-1-1-|

[F]No water tastes [A]like lemonade
[Bb]Slowly, slowly it [A]starts to fade
Bridge2:
e|---------------------------------------------------8-8-8-101010-|
B|-----------------------6-6-8-8-8-10-10-10-11-11-11--------------|
G|-3-3-3-5-5-5-7-7-7-9-9-----------------------------5-5-5--7-7-7-|
D|-----------------------3-3-5-5-5--7--7--7--8--8--8--------------|
A|-1-1-1-3-3-3-5-5-5-7-7------------------------------------------|
E|----------------------------------------------------------------|

Verse 3:
D Gm (Riff 2)
Be natural with me tonight
D Gm (Riff 3)
Be natural put your fists in my eyes
D Gm (Riff 3)
Be natural so turn into stone
Be [D]natural just leave me [Gm]alone
Bridge1
Chorus:
[F]Grown up or [A]backwards born
Bb A Riff 4
Into eternity and blackholes
[F]Floating around up [A]here on my own
[Bb]Screaming at me for[A]ever unknown
Bridge2
Verse 4
(Throw in a few of the riffs here and there)
Been [D]natural[Gm]
Been [D]natural[Gm]
Been [D]natural[Gm]
Been [D]natural - is there anyone [Gm]else?
Chords EADGBE
D XX0232
Gm XX0333

Important: The song above is NOT stored on the Chordie server. The original song is hosted at www.xguitar.com. Chordie works as a search engine and provides on-the-fly formatting. Chordie does not index songs against artists'/composers' will. To remove this song please click here.

Text color:
Chord color:
Chord grids: 
Font size:    
Page size: 

A Bb D Em F Gm
variations - click chord images

Login - add to songbook

Transpose chords

Tuning

Rating click stars to rate

Layout
Accuracy

SHARE PAGE  




You need to log in to post comments